Monty Are I - In This Legacy tab

                               In This Legacy
                                Monty Are I


                            Tabbed By: A3r0sm1th

                       Tuning: Standard ( E A D G B e )


                                    Key
                              ---------------

                               x = Palm Mute
                               h = Hammer-on
                               p = Pull-Off

                            "Lyrics are in Quote"

           Intro - Piano:

              A Flat

e-|----11h12-11-------------------|B-|----------------12-11----------|G-|-------------13-------11-13----|D-|-------------------------------|A-|-------------------------------|E-|-------------------------------|
Em
e-|----11h12-11-------------------|B-|----------------12-11----------|G-|-------------13----------11----|D-|----------------------14-------|A-|-------------------------------|E-|-------------------------------|
A Flat
e-|----11h12-11-------------------|B-|----------------12-11----------|G-|-------------13-------11-13----|D-|-------------------------------|A-|-------------------------------|E-|-------------------------------|
Em
e-|----11h12-11-------------------|B-|----------------12-11----------|G-|-------------13----------11----|D-|----------------------14-------|A-|-------------------------------|E-|-------------------------------|
Intro - Guitar:
e-|-------------------------------------------------|B-|-------------------------------------------------|G-|-------------------------------------------------|D-|-6-6-x-x-x-x-x-x-6-6-x-x-x-x-x-x-6-6-x-x-x-x-x-x-|A-|-6-6-x-x-x-x-x-x-6-6-x-x-x-x-x-x-6-6-x-x-x-x-x-x-|E-|-4-4-x-x-x-x-x-x-4-4-x-x-x-x-x-x-4-4-x-x-x-x-x-x-|
e-|-------------------------------------------------|B-|-------------------------------------------------|G-|-------------------------------------------------|D-|-2-2-x-x-x-x-x-x-2-2-x-x-x-x-x-x-2-2-x-x-x-x-x-x-|A-|-2-2-x-x-x-x-x-x-2-2-x-x-x-x-x-x-2-2-x-x-x-x-x-x-|E-|-0-0-x-x-x-x-x-x-0-0-x-x-x-x-x-x-0-0-x-x-x-x-x-x-|
e-|-------------------------------------------------|B-|-------------------------------------------------|G-|-------------------------------------------------|D-|-6-6-x-x-x-x-x-x-6-6-x-x-x-x-x-x-6-6-x-x-x-x-x-x-|A-|-6-6-x-x-x-x-x-x-6-6-x-x-x-x-x-x-6-6-x-x-x-x-x-x-|E-|-4-4-x-x-x-x-x-x-4-4-x-x-x-x-x-x-4-4-x-x-x-x-x-x-|
e-|-------------------------------------------------|B-|-------------------------------------------------|G-|-------------------------------------------------|D-|-2-2-x-x-x-x-x-x-2-2-x-x-x-x-x-x-2-2-x-x-x-x-x-x-|A-|-2-2-x-x-x-x-x-x-2-2-x-x-x-x-x-x-2-2-x-x-x-x-x-x-|E-|-0-0-x-x-x-x-x-x-0-0-x-x-x-x-x-x-0-0-x-x-x-x-x-x-|
Verse 1:
|--------------------------------------------||--------------------------------------------||--------------------------------------------||--66--666-666-666-2-2---------2-2-----------||--66--666-666-666-2-2--1h2p1--2-2-1h2p1-----||--44--444-444-444-0-0-------2-0-0------2----|
“Face to face, we've come from lands undone”
|--------------------------------------------||--------------------------------------------||--------------------------------------------||--66--666-666-666-2-2---------2-2-----------||--66--666-666-666-2-2--1h2p1--2-2-1h2p1-----||--44--444-444-444-0-0-------2-0-0------2----|
“We bend and twist this broken mess, yet to see the sun”
|-----------------------------------------------------------||-----------------------------------------------------------||-----------------------------------------------------------||--6-6-6--8-8-8--9-9-9--11-11-11--2-2----------2-2----------||--6-6-6--8-8-8--9-9-9--11-11-11--2-2--1h2p1---2-2--1h2p1---||--4-4-4--6-6-6--7-7-7--9--9--9---0-0-------2--0-0-------2--|
“And now soon you'll see the glory”
|---------------------------------------------------||---------------------------------------------------||---------------------------------------------------||--6-6-6--8-8-8--9-9-9--11-11-11--2-2----------2-2--||--6-6-6--8-8-8--9-9-9--11-11-11--2-2--1h2p1---2-2--||--4-4-4--6-6-6--7-7-7--9--9--9---0-0-------2--0-0--|
“And I'm proof of living dead” [[[ Background Vocals come here ]]] “DESTROY WHAT YOU'VE BUILT, GIVE UP THE WILL”
|---------------------------------||---------------------------------||---------------------------------||--66--1h2p1--66--1h2p1--66--1h2--||--66---------66---------44-------||--44---------44---------44-------|
“Trust me, 'cause so far I've stood strong”
|---------------------------------||---------------------------------||---------------------------------||--66--1h2p1--66--1h2p1--66--1h2--||--66---------66---------44-------||--44---------44---------44-------|
“Trust me, 'cause so far I've stood strong”
|---------------------------------||---------------------------------||---------------------------------||--66--1h2p1--66--1h2p1--66--1h2--||--66---------66---------44-------||--44---------44---------44-------|
“Trust me, 'cause so far I've stood tall”
e-|----------------| B-|----------------| G-|--999999999999--| D-|--999999999999--| A-|--777777777777--| E-|----------------|
“Just listen to what I say” Chorus:
|-------------------------------------------------------||-------------------------------------------------------||----------------------------444444444444---------------||--666666666666-222222222222-444444444444-444444444444--||--666666666666-222222222222-222222222222-444444444444--||--444444444444-000000000000--------------222222222222--|
“This is how we live, This is what we breathe, And it's insulting to my face”
|------------------------------------------||------------------------------------------||----------------------------444444444444--||--666666666666-222222222222-444444444444--||--666666666666-222222222222-222222222222--||--444444444444-000000000000---------------|
“It's something I'll take under my wing, I will fly until I sing this free (Stop, to fate)”
|---------------------------------||---------------------------------||---------------------------------||--6-6--1h2p1---1h2p1---4---------||--6-6-------2-------2------------||--4-4----------------------------|
“A servant to your dreams, this blood will spill” Verse 2:
|--------------------------------------------||--------------------------------------------||--------------------------------------------||--Bass Plays------2-2---------2-2-----------||----Here----------2-2--1h2p1--2-2-1h2p1-----||-44-444-444-444---0-0-------2-0-0------2----|
“Ruining your dreams that I despise”
|--------------------------------------------||--------------------------------------------||--------------------------------------------||--Bass Plays------2-2---------2-2-----------||----Here----------2-2--1h2p1--2-2-1h2p1-----||-44-444-444-444---0-0-------2-0-0------2----|
“I will not strike 'til I see the whites of your eyes”
|---------------------------------------------------------||---------------------------------------------------------||---------------------------------------------------------||--Bass or Lead can play this---2-2----------2-2----------||-------------------------------2-2--1h2p1---2-2--1h2p1---||--4-4-4--6-6-6--7-7-7--9-9-9---0-0-------2--0-0-------2--|
“And only then you'll feel the fury”
|---------------------------------------------------------------||---------------------------------------------------------------||---------------------------------------------------------------||-------------------------------2-2----------13-12-10----12-13--||-------------------------------2-2--1h2p1------------12--------||--4-4-4--6-6-6--7-7-7--9-9-9---0-0-------2---------------------|
“And I'm proof of living dead” [[[ Background Vocals come here ]]] “DESTROY WHAT YOU'VE BUILT, GIVE UP THE WILL”
|---------------------------------||---------------------------------||---------------------------------||--66--1h2p1--66--1h2p1--66--1h2--||--66---------66---------44-------||--44---------44---------44-------|
“Trust me, 'cause so far I've stood strong”
|---------------------------------||---------------------------------||---------------------------------||--66--1h2p1--66--1h2p1--66--1h2--||--66---------66---------44-------||--44---------44---------44-------|
“Trust me, 'cause so far I've stood strong”
|---------------------------------||---------------------------------||---------------------------------||--66--1h2p1--66--1h2p1--66--1h2--||--66---------66---------44-------||--44---------44---------44-------|
“Trust me, 'cause so far I've stood tall”
e-|----------------| B-|----------------| G-|--999999999999--| D-|--999999999999--| A-|--777777777777--| E-|----------------|
“Just listen when I say” Chorus 2:
|------------------------------------------------------------||------------------------------------------------------------||----------------------------444444444444--------------------||--666666666666-222222222222-444444444444-4-4-4-4-4-4444444--||--666666666666-222222222222-222222222222-4-4-4-4-4-4444444--||--444444444444-000000000000--------------2-2-2-2-2-2222222--|
“This is how we live, This is what we breathe, And it's insulting to my face”
|------------------------------------------||------------------------------------------||----------------------------444444444444--||--666666666666-222222222222-444444444444--||--666666666666-222222222222-222222222222--||--444444444444-000000000000---------------|
“It's something I'll take under my wing, I will fly until I sing this free (Stop, to fate)”
|---------------------------------||---------------------------------||--8-8--8-8--8--8-----------------||--8-8--8-8--8--8-----------------||--6-6--6-6--6--6-----------------||---------------------------------|
“A servant to your dreams, this blood will, blood will spill” Bridge:
|-----------------------------------------||-----------------------------------------||-----------------------------------------||--2-2-2-2-2-4-4-4-4-4-6-6-6-6-6-6----6-4-||--2-2-2-2-2-4-4-4-4-4-6-6-6-6-6-6----6-4-||--0-0-0-0-0-2-2-2-0-2-4-4-4-4-4-4----4-2-|
“This is the one that is the answer to our lives”
|---------------------------------------------||---------------------------------------------||---------------------------------------------||--2-2-2-2-2-4-4-4-4-4-6-6-6-6-6-6-6-6-6--6-4-||--2-2-2-2-2-4-4-4-4-4-6-6-6-6-6-6-6-6-6--6-4-||--0-0-0-0-0-2-2-2-0-2-4-4-4-4-4-4-4-4-4--4-2-|
“Look ahead, and even if this never works”
|--------------------------------------||--------------------------------------||--------------------------------------||--2-2-2--4-4-4--4-4-6-6-6--6-6-6--6-4-||--2-2-2--4-4-4--4-4-6-6-6--6-6-6--6-4-||--0-0-0--2-2-2--2-0-4-4-4--4-4-4--4-2-|
“(I'll be) satisfied with every motion”
|-----------------------------------------------||----------------4-4-4-5-5-5-4------------------||-------------------------------4p3-4-3---1-----||--2-2-2--4-4-4-------------------------4-------||--2-2-2--4-4-4---------------------------------||--0-0-0--2-2-2---------------------------------|
“And now I am sure I was right” ===== Piano-Guitar Instrumental ===== ~~~Piano Instrumental~~~ A Flat
e-|----11h12-11-------------------|B-|----------------12-11----------|G-|-------------13-------11-13----|D-|-------------------------------|A-|-------------------------------|E-|-------------------------------|
Em
e-|----11h12-11-------------------|B-|----------------12-11----------|G-|-------------13----------11----|D-|----------------------14-------|A-|-------------------------------|E-|-------------------------------|
A Flat
e-|----11h12-11-------------------|B-|----------------12-11----------|G-|-------------13-------11-13----|D-|-------------------------------|A-|-------------------------------|E-|-------------------------------|
Em
e-|----11h12-11-------------------|B-|----------------12-11----------|G-|-------------13----------11----|D-|----------------------14-------|A-|-------------------------------|E-|-------------------------------|
~~~Guitar Instrumental~~~
e-|-------------------------------------------------|B-|-------------------------------------------------|G-|-------------------------------------------------|D-|-6-6-x-x-x-x-x-x-6-6-x-x-x-x-x-x-6-6-x-x-x-x-x-x-|A-|-6-6-x-x-x-x-x-x-6-6-x-x-x-x-x-x-6-6-x-x-x-x-x-x-|E-|-4-4-x-x-x-x-x-x-4-4-x-x-x-x-x-x-4-4-x-x-x-x-x-x-|
e-|-------------------------------------------------|B-|-------------------------------------------------|G-|-------------------------------------------------|D-|-2-2-x-x-x-x-x-x-2-2-x-x-x-x-x-x-2-2-x-x-x-x-x-x-|A-|-2-2-x-x-x-x-x-x-2-2-x-x-x-x-x-x-2-2-x-x-x-x-x-x-|E-|-0-0-x-x-x-x-x-x-0-0-x-x-x-x-x-x-0-0-x-x-x-x-x-x-|
e-|-------------------------------------------------|B-|-------------------------------------------------|G-|-------------------------------------------------|D-|-6-6-x-x-x-x-x-x-6-6-x-x-x-x-x-x-6-6-x-x-x-x-x-x-|A-|-6-6-x-x-x-x-x-x-6-6-x-x-x-x-x-x-6-6-x-x-x-x-x-x-|E-|-4-4-x-x-x-x-x-x-4-4-x-x-x-x-x-x-4-4-x-x-x-x-x-x-|
e-|----------------| B-|----------------| G-|----------------| D-|--2-2----2-2----| A-|--2-2----2-2----| E-|--0-0----0-0----|
Chorus 3:
|-------------------------------------------------------||-------------------------------------------------------||----------------------------444444444444---------------||--666666666666-222222222222-444444444444-444444444444--||--666666666666-222222222222-222222222222-444444444444--||--444444444444-000000000000--------------222222222222--|
“This is how we live, This is what we breathe, And it's insulting to my face”
|--------------------------------------------------||--------------------------------------------------||------------------------------------444444444444--||-22------------2-2-2--2-2-2-2-2-----444444444444--||-22------------2-2-2--2-2-2-2-2-----222222222222--||-00------------0-0-0--0-0-0-0-0-------------------|
“It's something I'll take under my wing, I will fly until I sing this free (Stop, to fate)”
|---------------------------------||---------------------------------||---------------------------------||--6-6--1h2p1---1h2p1---4---------||--6-6-------2-------2------------||--4-4----------------------------|
“A servant to your dreams, this blood will spill” ===== OUTRO ===== ~~~Piano~~~ A Flat
e-|----11h12-11-------------------|B-|----------------12-11----------|G-|-------------13-------11-13----|D-|-------------------------------|A-|-------------------------------|E-|-------------------------------|
Em
e-|----11h12-11-------------------|B-|----------------12-11----------|G-|-------------13----------11----|D-|----------------------14-------|A-|-------------------------------|E-|-------------------------------|
A Flat
e-|----11h12-11-------------------|B-|----------------12-11----------|G-|-------------13-------11-13----|D-|-------------------------------|A-|-------------------------------|E-|-------------------------------|
Em
e-|----11h12-11-------------------|B-|----------------12-11----------|G-|-------------13----------11----|D-|----------------------14-------|A-|-------------------------------|E-|-------------------------------|
~~~Guitar~~~e-|-------------------------------------------------|B-|-------------------------------------------------|G-|-------------------------------------------------|D-|-6-6-x-x-x-x-x-x-6-6-6-6-x-x-x-x-6-6-x-x-x-x-x-x-|A-|-6-6-x-x-x-x-x-x-6-6-6-6-x-x-x-x-6-6-x-x-x-x-x-x-|E-|-4-4-x-x-x-x-x-x-4-4-4-4-x-x-x-x-4-4-x-x-x-x-x-x-|
e-|-------------------------------------------------|B-|-------------------------------------------------|G-|-------------------------------------------------|D-|-2-2-x-x-x-x-x-x-2-2-2-2-x-x-x-x-2-2-x-x-x-x-x-x-|A-|-2-2-x-x-x-x-x-x-2-2-2-2-x-x-x-x-2-2-x-x-x-x-x-x-|E-|-0-0-x-x-x-x-x-x-0-0-0-0-x-x-x-x-0-0-x-x-x-x-x-x-|
e-|-------------------------------------------------|B-|-------------------------------------------------|G-|-------------------------------------------------|D-|-6-6-x-x-x-x-x-x-6-6-6-6-x-x-x-x-6-6-x-x-x-x-x-x-|A-|-6-6-x-x-x-x-x-x-6-6-6-6-x-x-x-x-6-6-x-x-x-x-x-x-|E-|-4-4-x-x-x-x-x-x-4-4-4-4-x-x-x-x-4-4-x-x-x-x-x-x-|
e-|-------------------------------------------------|B-|-------------------------------------------------|G-|-------------------------------------------------|D-|-2-2-x-x-x-x-x-x-2-2-2-2-x-x-x-x-2-2-x-x-x-x-x-x-|A-|-2-2-x-x-x-x-x-x-2-2-2-2-x-x-x-x-2-2-x-x-x-x-x-x-|E-|-0-0-x-x-x-x-x-x-0-0-0-0-x-x-x-x-0-0-x-x-x-x-x-x-|
Background Vocals are sung throughout: “DESTROY WHAT YOU'VE BUILT, GIVE UP THE WILL” Here’s the trumpet part (for those interested) that is played with the background vocals
e-|-----4-----4--2--------|B-|--4-----4-------4-3-2--|G-|-----------------------|D-|-----------------------|A-|-----------------------|E-|-----------------------|
e-|--4-----4-4~~~---------|B-|-----4-----------------|G-|-----------------------|D-|-----------------------|A-|-----------------------|E-|-----------------------|
The Piano above finishes the song alone
Tap to rate this tab
 
# A B C D E F G H I J K L M N O P Q R S T U V W X Y Z