Moonspell – Wolfshade tab ver. 2

Artist: Moonspell
Album: Wolfheart'95
Song:Wolfshade (A Werewolf Masquerade)

Intro (clean)

|-----7-------7-------7-------7-|-----7-------7-------7-------7-||-----8-------7-------8-------7-|-----8-------7-------8-------7-||-----9-------9-------9-------9-|-----9-------9-------9-------9-||-----9-------9-------9-------9-|-----9-------9-------9-------9-||-----7-------7-------7-------7-|-----7-------7-------7-------7-||-0-------0-------0-------0-----|-0-------0-------0-------0-----|
|-----3-------3-------3-------3-||-----4-------3-------4-------3-||-----5-------5-------5-------5-| Repeat the whole riff once!|-----5-------5-------5-------5-||-3---3---3---3---3---3---3---3-||-------------------------------|
Riff 1
|------------------------------------||------------------------------------||------------------------------------||-3-3-3-2----------------------------||-3-3-3-2---/10--9~~----7-7-9-10-----||-1-1-1-0------------------------8~~-|
Riff 2
|---------------------------------------||---------------------------------------||---------------------------------------||---------------------------------------||-----7-10-----7-9-----7-10-9-7h9p7-6---||-0-7------0-7-----0-7----------------8-|
|-------------------------------------||-------------------------------------||-------------------------------------||-------------------------------------||-----7-10-----7-9-----7-10--10-9-7-9-||-0-7------0-7-----0-7-------8--7-5-7-|
Riff 3 (clean)
|------------------------------------||-------3--------1--------0--------1-||-----2--------2--------2--------2---||---2--------2--------2--------2-----||-0--------0--------0--------0-------||------------------------------------|
Riff 4 (clean)
|----------------------------------------------------||----------------------------------------------------||----------------------------------------------------||--------------4--4-4-4--4---------------------------||-5--5-5-5--5--5--5-5-5--5--4--4-4-4--4--2--2-2-2--2-||-7--7-7-7--7---------------5--5-5-5--5--3--3-3-3--3-|
Riff 5
|-------------------------------------------------||-------------------------------------------------||-------------------------------------------------||-------------------------------------------------||---3-----3-----3---2-----2-----2---0-----0-----0-||-5---5-5---5-5---3---3-3---3-3---1---1-1---1-1---|
(I'm not sure about how to play this!)|-----------------------------------------------------------------------------||-----------------------------------------------------------------------------||-----------------------------------------------------------------------------||---------6-6-6-6-------------------------------------------------------------||-0-0-0-0-7-7-7-7-------------------------------------------------------------||-0-0-0-0-0-0-0-0-------------------------------------------------------------|
Riff 6
|-----------------------------------------------------------------||-----------------------------------------------------------------||-----------------------------------------------------------------||-----------------------------------------------------------------||---3-----5p3---3---2-----3p2---2---0-----1p0---0-----------------||-5---5-5-----5---3---3-3-----3---1---1-1-----1---0-4-0-0-5p4-0-4-|
Riff 7
|-----------------------------------------------------||-----------------------------------------------------||-----------------------------------------------------||---------------2--2-2-2--2---------------------------||--3--3-3-3--3--3--3-3-3--3--2--2-2-2--2--0--0-0-0--0-||--5--5-5-5--5---------------3--3-3-3--3--1--1-1-1--1-|
Rhythm under solo
|------------------------||------------------------||------------------------||-7------5------3------2-||-7------5------3------2-||-5------3------1------0-|
Solo
|------------------------------------------------||------------------------------------------------||-14~~-----12~--14~~-----16~--14~~-----12~--14~~-||------------------------------------------------||------------------------------------------------||------------------------------------------------|
|------------------------------------------------------||------------------------------------------------------||-14~~-----12~--14~~-----16~--14~~-----12~--14~~---16~-||------------------------------------------------------||------------------------------------------------------||------------------------------------------------------|
|-17~~--15h17p15-12----12-15-12h15p12----12~~---15----||-------------------15----------------15-----------15-||-----------------------------------------------------||-----------------------------------------------------||-----------------------------------------------------||-----------------------------------------------------|
|------------------------------------------||-13-12-13-15-13h15p13p12-13----12---------||----------------------------14----12-14~~-||------------------------------------------||------------------------------------------||------------------------------------------|
|------------------------------------------------------||-15----17----18----17----15----17----18----17----15~~-||----14----14----14----14----14----14----14----14------||------------------------------------------------------||------------------------------------------------------||------------------------------------------------------|
|------------------------------------------------------------------||------------------15p12-15p12-15p12-15p12-15p12-15p12-15p12-15p12-||-12h14p12-14-14~~-------------------------------------------------||------------------------------------------------------------------||------------------------------------------------------------------||------------------------------------------------------------------|
|-------------------------------------------------||-17p12-17p12-17p12-17p12-17p12-17p12-17p12-17p12-||-------------------------------------------------||-------------------------------------------------||-------------------------------------------------||-------------------------------------------------|
|-----------------------------------------------------------------------------||-18p12p0-17p12p0-15p12p0-17p12p0-18p120-17p12p0-15p12p0-17p12p0-18p12p0-17~~-||-----------------------------------------------------------------------------||-----------------------------------------------------------------------------||-----------------------------------------------------------------------------||-----------------------------------------------------------------------------|
|-------------------------------------------||-17-18-20~p18p17-18~--17-18-20~p18p17--18~-||-------------------------------------------||-------------------------------------------||-------------------------------------------||-------------------------------------------|
|----------------------------------------------------||-17-18-20p18p17-20p18p17-20p18p17-20p18p17-20p18p17-||----------------------------------------------------||----------------------------------------------------||----------------------------------------------------||----------------------------------------------------|
|------17..------17..-19\20-19--------------||-20..------20..----------------17bf---etc.-||-------------------------------------------||-------------------------------------------||-------------------------------------------||-------------------------------------------|
Please rate this tab:
x1.0