Morbid Angel – God Of The Forsaken tab ver. 2

Band: Morbid Angel
Album: Gateways to annihilation
Song:  God of the forsaken


_________________________________________________________

.  - palm mute           /  - slide up to
\  - slide down to       ~  - vibrato
h  - hammer on           b  - Bend
p  - pull off            Suffixes for bend
t  - tap                 f  - full bend    h - half bend
ph - pinched harmonic    q  - quarter bend t - tap bend
*  - see comment         ^  - Hold bend    r release bend
x  - Stuccatto           ~  - vibrato bend
,  - slight palm mute    () - ghost note, sustained note
"  - tremolo note        <> - Trill

Tuning Bb Eb Ab Db F Bb Eb ( 7 String guitar)

_________________________________________________________

Intro Riff 1 0:00 2xGuitar 1|--------------------------------------||--------------------------------------||---9---9--------10\(9)-9---9----------||--------------------------------------||---7---7--------8-\(7)-7---7----------||-0---0------3-4----------0------4-3-0-| . . . . .
Guitar 2|--------------------------------------||--------------------------------------||--------------------------------------||---9---9--------10\(9)-9---9--------2-||---8---8--------9--(8)-8---8--------1-||-0-7-0-7----3-4-8-\(7)-7-0-7----4-3---| . . . . .
Riff 2 0:08 2xGuitar 1|---------------------------------------||---------------------------------------||---9---9---9----10\(9)-9---9---9-------||---------------------------------------||---7---7---7----8-\(7)-7---7---7-------||-0---0---0---3-4---------0---0---4-3-0-|
Guitar 2|---------------------------------------||---------------------------------------||---------------------------------------||---9---9---------10\(9)-9---9--------2-||---8---8---------9--(8)-8---8--------1-||-0-7-0-7-----3-4-8-\(7)-7-0-7----4-3---| . . . . .
Riff 3 0:16 1xGuitar 1|-----------------------------||-----------------------------||-----------------6b-5b-4b-3--||-----------------5b-4b-3b-2--||-----------------4b-3b-2b-1--||-----------------------------|
Guitar 2|-----------------------------||-----------------------------||-5-5/6---3-3/4---6b-5b-4b-3--||-4-4/5---2-2/3---5b-4b-3b-2--||-3-3/4---1-1/2---4b-3b-2b-1--||-----------------------------|
Riff 3 0:20 1xGuitar 1|--------------------------------------||--------------------------------------||---9---9---9---10\(9)-9---9---9-------||--------------------------------------||---7---7---7---8-\(7)-7---7---7-------||-0---0---0---0----------0---0---4-3-0-|
----------------------------------------|----------------------------------------|---9---9---9---10\(9)-9---9-------------|----------------------------------------|---7---7---7---8-\(7)-7---7-------------|-0---0---0---0----------0---0-1-3-2-356-|
--------------------------------------|--------------------------------------|---9---9---9---10\(9)-9---9---9-------|--------------------------------------|---7---7---7---8-\(7)-7---7---7-------|-0---0---0---0----------0---0---4-3-0-|
---------------------------------------|---------------------------------------|---9---9---9---10\(9)-9---9------------|---------------------------------------|---7---7---7---8-\(7)-7---7------------|-0---0---0---0----------0---0-1-4-1-3--|
Guitar 2 (play this under all the Guitar 1 bars)|--------------------------------------||--------------------------------------||--------------------------------------||---9---9--------10\(9)-9---9--------2-||---8---8--------9--(8)-8---8--------1-||-0-7-0-7----3-4-8-\(7)-7-0-7----4-3---|
Riff 4 0:36 1xGuitar 1|--------------------------------||--------------------------------||-----------------2-3-5-6-5-3-5--||-8-7-4-7-----6-3----------------||-----------------0-1-3-4-3-1-3--||-6-5-2-5-----4-1----------------|
-----------------------------------------------|-----------------------------------------------|-----------------------------------------------|-7-6-3-6------5-2------------------------------|------------------3333444466667777666644446666-|-5-4-1-4------3-0------------------------------|
--------------------------------|--------------------------------|-----------------2-3-5-6-5-3-5--|-8-7-4-7-----6-3----------------|-----------------0-1-3-4-3-1-3--|-6-5-2-5-----4-1----------------|
-----------------------------------------------|-----------------------------------------------|-----------------------------------------------|-7-6-3-6------5-2------------------------------|------------------3333444466667777666644443333-|-5-4-1-4------3-0------------------------------|
Guitar 2|--------------------------------||--------------------------------||--------------------------------||-8-7-4-7-----6-3-6-3-5-2-5-2-5--||--------------------------------||-6-5-2-5-----4-1-4-1-3-0-3-0-3--|
------------------------------------------------|------------------------------------------------|------------------------------------------------|-7-6-3-6-------6-3------------------------------|-------------------0000111133334444333311113333-|-5-4-1-4-------4-1------------------------------|
--------------------------------|--------------------------------|--------------------------------|-8-7-4-7-----6-3-6-3-5-2-5-2-5--|--------------------------------|-6-5-2-5-----4-1-4-1-3-0-3-0-3--|
------------------------------------------------|------------------------------------------------|------------------------------------------------|-7-6-3-6-------6-3------------------------------|-------------------0000111133334444333311110000-|-5-4-1-4-------4-1------------------------------|
Riff 3 0:52 1xGuitar 1|--------------------------------------||--------------------------------------||---9---9---9---10\(9)-9---9---9-------||--------------------------------------||---7---7---7---8-\(7)-7---7---7-------||-0---0---0---0----------0---0---4-3-0-|
----------------------------------------|----------------------------------------|---9---9---9---10\(9)-9---9-------------|----------------------------------------|---7---7---7---8-\(7)-7---7-------------|-0---0---0---0----------0---0-1-3-2-356-|
--------------------------------------|--------------------------------------|---9---9---9---10\(9)-9---9---9-------|--------------------------------------|---7---7---7---8-\(7)-7---7---7-------|-0---0---0---0----------0---0---4-3-0-|
---------------------------------------|---------------------------------------|---9---9---9---10\(9)-9---9------------|---------------------------------------|---7---7---7---8-\(7)-7---7------------|-0---0---0---0----------0---0-1-4-1-3--|
Guitar 2 (play this under all the Guitar 1 bars)|--------------------------------------||--------------------------------------||--------------------------------------||---9---9--------10\(9)-9---9--------2-||---8---8--------9--(8)-8---8--------1-||-0-7-0-7----3-4-8-\(7)-7-0-7----4-3---|
Riff 4 1:07Guitar 1 1x|--------------------------------||--------------------------------||-----------------2-3-5-6-5-3-5--||-8-7-4-7-----6-3----------------||-----------------0-1-3-4-3-1-3--||-6-5-2-5-----4-1----------------|
----------------------------------------------|----------------------------------------------|----------------------------------------------|-7-6-3-6------5-2-----------------------------|------------------333-444-666-777-666-444-666-|-5-4-1-4------3-0-----------------------------|
Guitar 2|--------------------------------||--------------------------------||--------------------------------||-8-7-4-7-----6-3-6-3-5-2-5-2-5--||--------------------------------||-6-5-2-5-----4-1-4-1-3-0-3-0-3--|
-----------------------------------------------|-----------------------------------------------|-----------------------------------------------|-7-6-3-6-------6-3-----------------------------|-------------------000-111-333-444-333-111-333-|-5-4-1-4-------4-1-----------------------------|
Riff 5 1:16 xGuitar 1|--------------------------------||--------------------------------||-----------------2-3-5-6-5-3-5--||-8-7-4-7-----6-3----------------||-----------------0-1-3-4-3-1-3--||-6-5-2-5-----4-1----------------|
---------------------------|---------------------------|--------------3------------|-7-6-3-6---------4---7---3-|--------------1------------|-5-4-1-4---------2---5---1-| .
Guitar 2|--------------------------------||--------------------------------||--------------------------------||-8-7-4-7-----6-3-6-3-5-2-5-2-5--||--------------------------------||-6-5-2-5-----4-1-4-1-3-0-3-0-3--|
---------------------------|---------------------------|--------------3------------|-7-6-3-6--------4--7--3--6-|--------------1------------|-5-4-1-4--------2--5--1--4-| .
Riff 6 1:24 1xGuitar 1|--------------------------------||--------------------------------||--------------------------------||--------------------------------||---44----------5555444422444444-||-55--5544555555-----------------|
----------------------------------------------|----------------------------------------------|----------------------------------------------|---------------55554444444222-222244445555555-|---33-----------------------------------------|-44--4433444444-------------------------------|
Guitar 2|--------------------------------||--------------------------------||--------------------------------||-8-7-4-7-----6-3-6-3-5-2-5-2-5--||--------------------------------||-6-5-2-5-----4-1-4-1-3-0-3-0-3--|
-----------------------------------------------|-----------------------------------------------|-----------------------------------------------|-7-6-3-6-------6-3-----------------------------|-------------------000-111-333-444-333-111-333-|-5-4-1-4-------4-1-----------------------------|
Riff 7 1:32 1xGuitar 1|--------------------------------||--------------------------------||--------------------------------||--------------------------------||---44----------5555444422444444-||-55--5544555555-----------------|
-----------------------------------------|-----------------------------------------|-----------------------------------------|---------------55554444444222------------|---33-------------------------554422-----|-44--4433444444---------------------5555-|
Guitar 2|--------------------------------||--------------------------------||--------------------------------||-8-7-4-7-----6-3-6-3-5-2-5-2-5--||--------------------------------||-6-5-2-5-----4-1-4-1-3-0-3-0-3--|
------------------------------------------|------------------------------------------|------------------------------------------|-7-6-3-6-----6-3--------------------------|-----------------000-111-333-444-333-1100-|-5-4-1-4-----4-1--------------------------|
Riff 8 1:39 Under Solo 1 1xGuitar 1|---------------------------------------||---------------------------------------||---------------------------------------||-------------------"-----------"-"-"-"-||-"---"-"-"-"-"-"-"-2---"-"-"-"-2-3-5-6-||-2---3-5-6-5-5-3-2-----3-5-6-5---------|
------------------------------------|------------------------------------|------------------------------------|----------------"----------------"--|--"-"-"-"-"-"-"-3---"-"-"-"-"-"-"-3-|--3-5-6-5-5-3-2-----3-5-6-5-5-3-2---|
------------------------------------------|------------------------------------------|------------------------------------------|----------------"-----------------------"-|--"-"-"-"-"-"-"-3-110---"-"-"-"-"-"-"-"-3-|--3-5-6-5-5-3-2-----------3-5-6-5-5-3-2---|
-------------------------------|-------------------------------|-------------------------------|---------------"---------------|-"-"-"-"-"-"-"-2---"-"-"-"-"---|-3-5-6-5-5-2-1-----3-5-6-5-5-2-|
Guitar 2 plays the same asGuitar 1 does in Riff 3|--------------------------------------||--------------------------------------||---9---9---9---10\(9)-9---9---9-------||--------------------------------------||---7---7---7---8-\(7)-7---7---7-------||-0---0---0---0----------0---0---4-3-0-|
----------------------------------------|----------------------------------------|---9---9---9---10\(9)-9---9-------------|----------------------------------------|---7---7---7---8-\(7)-7---7-------------|-0---0---0---0----------0---0-1-3-2-356-|
--------------------------------------|--------------------------------------|---9---9---9---10\(9)-9---9---9-------|--------------------------------------|---7---7---7---8-\(7)-7---7---7-------|-0---0---0---0----------0---0---4-3-0-|
---------------------------------------|---------------------------------------|---9---9---9---10\(9)-9---9------------|---------------------------------------|---7---7---7---8-\(7)-7---7------------|-0---0---0---0----------0---0-1-4-1-3--|
Riff 9 1:55 2xGuitar 1|-----------------------------------------||-----------------------------------------||-----------------------------------------||-/4---/3---/4-/3-4-3----/7---/6----""-""-||----------------------------------/4-/5--||-/2---/1---/2-/1-2-1----/5---/4----------|
Guitar 2|------------------------------------------||------------------------------------------||------------------------------------------||-/4---/3---/4-/3-4-3---(7)\3---2----------||--------------------------------------2-1-||-/2---/1---/2-/1-2-1---(5)\1---0--2-3-----|
Riff 10 2:11 1xGuitar 1|---------------------------------------||---------------------------------------||---------------------------------------||-/4---/3---/4--""-""--/4---3-----------||--------------/4-/5----------""-""-""--||-/2---/1---/2---------/2---1-5--2--3---|
------------------------------------------|------------------------------------------|-----------""-----""----------------------|-/4---/3---2--00220---/4---3--------"-"---|-----------------------------""-""--3-1-"-|-/2---/1--------------/2---1-5--2-------1-|
Guitar 2|----------------------------------------------||----------------------------------------------||----------------------------------------------||-/4---/3---/4-/3-4-3---(7)\3---2--------------||--------------------------------------2-1-----||-/2---/1---/2-/1-2-1---(5)\1---0--2-3-----3-2-|
----------------------------------------------|----------------------------------------------|----------------------------------------------|-/4---/3---/4-/3-4-3---(7)\3---2--------------|--------------------------------------2-1-----|-/2---/1---/2-/1-2-1---(5)\1---0--2-3-----3-2-|
Riff 11 2:27 under Solo 2 2xGuitar 1|-----------------------------------------------------||-----------------------------------------------------||-----------------------------------------------------||-3--/10---10-8-6-8-8----3--/11--11-10-8--10-11-13-11-||-----------------------------------------------------||-1--/8----8--6-4-6-6----1--/9---9--8--6--8--9--11-9--|
-------------------------------------------------------|-------------------------------------------------------|-------------------------------------------------------|-3--/10---10-8-6-8-8----/11--10/11\10--8-6-8-8--10-8-6-|-------------------------------------------------------|-1--/8----8--6-4-6-6----/9---8-/9-\8---6-4-6-6--8--6-4-|
Guitar 2|--------------------------------------------||--------------------------------------------||--------------------------------------------||-3--/6---6-3-2-5-5----3--/8--8-6-5-6-8-10-8-||--------------------------------------------||-1--/4---4-1-0-3-3----1--/6--6-4-3-4-6-8--6-|
----------------------------------------------|----------------------------------------------|----------------------------------------------|-3--/6---6-3-2-5-5----/8---7/8\7--6-2-3-5-6-5-|----------------------------------------------|-1--/4---4-1-0-3-3----/6---5/6\5--4-0-1-3-4-3-|
Riff 4 2:58 2xGuitar 1|--------------------------------||--------------------------------||-----------------2-3-5-6-5-3-5--||-8-7-4-7-----6-3----------------||-----------------0-1-3-4-3-1-3--||-6-5-2-5-----4-1----------------|
-----------------------------------------------|-----------------------------------------------|-----------------------------------------------|-7-6-3-6------5-2------------------------------|------------------3333444466667777666644446666-|-5-4-1-4------3-0------------------------------|
--------------------------------|--------------------------------|-----------------2-3-5-6-5-3-5--|-8-7-4-7-----6-3----------------|-----------------0-1-3-4-3-1-3--|-6-5-2-5-----4-1----------------|
-----------------------------------------------|-----------------------------------------------|-----------------------------------------------|-7-6-3-6------5-2------------------------------|------------------3333444466667777666644443333-|-5-4-1-4------3-0------------------------------|
Guitar 2|--------------------------------||--------------------------------||--------------------------------||-8-7-4-7-----6-3-6-3-5-2-5-2-5--||--------------------------------||-6-5-2-5-----4-1-4-1-3-0-3-0-3--|
------------------------------------------------|------------------------------------------------|------------------------------------------------|-7-6-3-6-------6-3------------------------------|-------------------0000111133334444333311113333-|-5-4-1-4-------4-1------------------------------|
--------------------------------|--------------------------------|--------------------------------|-8-7-4-7-----6-3-6-3-5-2-5-2-5--|--------------------------------|-6-5-2-5-----4-1-4-1-3-0-3-0-3--|
------------------------------------------------|------------------------------------------------|------------------------------------------------|-7-6-3-6-------6-3------------------------------|-------------------0000111133334444333311110000-|-5-4-1-4-------4-1------------------------------|
Riff 3 3:30 1xGuitar 1|--------------------------------------||--------------------------------------||---9---9---9---10\(9)-9---9---9-------||--------------------------------------||---7---7---7---8-\(7)-7---7---7-------||-0---0---0---0----------0---0---4-3-0-|
----------------------------------------|----------------------------------------|---9---9---9---10\(9)-9---9-------------|----------------------------------------|---7---7---7---8-\(7)-7---7-------------|-0---0---0---0----------0---0-1-3-2-356-|
--------------------------------------|--------------------------------------|---9---9---9---10\(9)-9---9---9-------|--------------------------------------|---7---7---7---8-\(7)-7---7---7-------|-0---0---0---0----------0---0---4-3-0-|
--------------------------------------|--------------------------------------|---9---9---9---10\(9)-9---9---9-------|--------------------------------------|---7---7---7---8-\(7)-7---7---7-------|-0---0---0---0----------0---0---4-3-0-|
Guitar 2 (play this under all the Guitar 1 bars)|--------------------------------------||--------------------------------------||--------------------------------------||---9---9--------10\(9)-9---9--------2-||---8---8--------9--(8)-8---8--------1-||-0-7-0-7----3-4-8-\(7)-7-0-7----4-3---|
End.
Please rate this tab:
x1.0