Morning Glory - Long Live Revolution Rock tab

So I searched for a guitar tab and there weren't any, anywhere, so from the bass tabs
and listening to the song and playing along I tried to put it together. This isn't
complete, if you can help finish it and touch it up please do! Listen to the song for 
strumming and rhythm

The chord progression for most of the verse, main and opening riff of the song and the
chorus is:


|---------------||---------------||-----------7---||-9----5----7---||-9----5----5---||-7----3--------|
and you can hear that once it also goes:
|---------------||---------------||-----------76--||-9----5----76--||-9----5----54--||-7----3--------|
Play main riff until BREAK comes before 1st verse: (I'm pretty sure it goes like this)
|-------------------------------||-------------------------------||-9--7----14--12-11-9--10-10-10-||-9--7----14--12-11-9--10-10-10-||-7--5----12--10-9--7--8--8--8--||-------------------------------|
VERSE: "When in the..."
|-----------------------||-----------------------||-----------------------||-99----55----99----55--||-99----55----99----55--||-77----33----77----33--|
VERSE part 2: "So fear not..."
|-----------------------||-----------------------||-----------------------||--9---12---14---12-----||--9---12---14---12-----||--7---10---12---10-----|
Then back to verse again, main riff: "So lift up your spirits..."
|----------------||----------------||-----------7----||-9----5----7----||-9----5----5----||-7----3---------|
Pre - Chorus break "You know we've gotta..."
|-------------------||-------------------||-9--7----14--12----||-9--7----14--12----||-7--5----12--10----||-------------------|
CHORUS: "Long live revolution rock..." main riff again Then back again to: VERSE:
|-----------------------||-----------------------||-----------------------||-99----55----99----55--||-99----55----99----55--||-77----33----77----33--|
Then:"This one goes out in the spirit of Che..."|----------------||----------------||-----------7----||-9----5----7----||-9----5----5----||-7----3---------|
Then BREAK/Pre-Chorus Break again "You know we've gotta do our best today"
|----------------------||----------------------||-9--7----14--12-11-9--||-9--7----14--12-11-9--||-7--5----12--10-9--7--||----------------------|
Then CHORUS again: main riff. Now comes the begining of the solo, which I'm not too sure about. this seems to sound right, (2:27 - 2:39)
|--------------------------||--------------------------||--------------------------||--9---5---9---12---9---5--||--9---5---9---12---9---5--||--7---3---7---10---7---3--|
After this, it goes back into the BREAK:
|----------------------||----------------------||-9--7----14--12-11-9--||-9--7----14--12-11-9--||-7--5----12--10-9--7--||----------------------|
Then the solo starts and I'm pretty sure the main riff is played throughout it. After the solo it goes back into the CHORUS, which is also the main riff. The song finishes on
|-----------||-----------||-----------||-----9-----||-----9-----||-----7-----|
Tap to rate this tab
 
# A B C D E F G H I J K L M N O P Q R S T U V W X Y Z