Mors Principium Est – Sinners Defeat tab

well, there's two small parts i figured out that i'm pretty sure aren't exactly 
other than that you can bet on the accuracy i'd say. i'll mark where i'm not sure by an * under 
staff, if anybody knows the actual way, please let me know }:D

EADGBe (yea, suprisin that a metal band nowadays actually still uses standard tunin undropped)

didn't feel like markin all the palm mutes, so basically if it's an open low E it's palm 
unless it's hammerin on to a higher note, otherwise i'll make a note for ya.

intro, all downstroke baby!---------------------------------------------------------------------------|---------------------------------------------------------------------------|---------------------------------------------------------------------------|---------------------------------------------------------------------------|-7-----9-----7-----10-----6-----9-----7-----------7h10p7p0-----6h9p6p0-----|---0-0---0-0---0-0----0-0---0-0---0-0---0-0-8-0-0----------0-0---------0-0-|
*---------------------------------------------------------------------------|---------------------------------------------------------------------------|---------------------------------------------------------------------------|---------------------------------------------------------------------------|-7-----9-----7-----10-----6-----9-----7-----------6h9p6-----------0h6h9----|---0-0---0-0---0-0----0-0---0-0---0-0---0-0-8-0-0-------8-6-0h5h8----------|
*---------------------------------------------------------------------------|---------------------------------------------------------------------------|---------------------------------------------------------------------------|---------------------------------------------------------------------------|-7-----9-----7-----10-----6-----9-----7-----------7h10p7p0-----6h9p6p0-----|---0-0---0-0---0-0----0-0---0-0---0-0---0-0-8-0-0----------0-0---------0-0-|
*---------------------------------------------------------------------------|---------------------------------------------------------------------------|--------------------------8------------------------------------------------|--------------------------8------------------------------------------------|-7-----9-----7-----10-----6------------------------------------------------|---0-0---0-0---0-0----0-0--------------------------------------------------|
drums kick in (headbangin is suggested)riff two: same as intro with two extra chords at the end---------------------------------------------------------------------------|---------------------------------------------------------------------------|---------------------------------------------------------------------------|---------------------------------------------------------------------------|-7-----9-----7-----10-----6-----9-----7-----------7h10p7p0-----6h9p6p0-----|---0-0---0-0---0-0----0-0---0-0---0-0---0-0-8-0-0----------0-0---------0-0-|
*---------------------------------------------------------------------------|---------------------------------------------------------------------------|---------------------------------------------------------------------------|---------------------------------------------------------------------------|-7-----9-----7-----10-----6-----9-----7-----------6h9p6-----------0h6h9----|---0-0---0-0---0-0----0-0---0-0---0-0---0-0-8-0-0-------8-6-0h5h8----------|
*---------------------------------------------------------------------------|---------------------------------------------------------------------------|---------------------------------------------------------------------------|---------------------------------------------------------------------------|-7-----9-----7-----10-----6-----9-----7-----------7h10p7p0-----6h9p6p0-----|---0-0---0-0---0-0----0-0---0-0---0-0---0-0-8-0-0----------0-0---------0-0-|
*---------------------------------------------------------------------------|---------------------------------------------------------------------------|--------------------------8----------------------5----------8--------------|--------------------------8----------------------5----------8--------------|-7-----9-----7-----10-----6----------------------3----------6--------------|---0-0---0-0---0-0----0-0--------------------------------------------------|
then you the the first four bars again before you play this:---------------------------------------------------------------------------|---------------------------------------------------------------------------|---------------------------------------------------------------------------|-2--------------------------------10-------------------7-----9-------------|-2--------------------------------10-------------------7-----9-------------|-0---------------------------------8-------------------5-----7-------------|
back to "riff 2"
which goes to riff 3: (palm mute all the 2's on the low E; played 2x)-----------------------------------------------------|-----------------------------------------------------|-------------5----2--2--5-------------5----9--8--5---|-------------5----2--2--5-------------5----9--8--5---|-------------3----0--0--3-------------3----7--6--3---|-2-2-2-2-2-2--------------2-2-2-2-2-2----------------|
-----------------------------------------------------|-----------------------------------------------------|-------------5----2--2--5-------------2----5--5--2---|-------------5----2--2--5-------------2----5--5--2---|-------------3----0--0--3-------------0----3--3--0---|-2-2-2-2-2-2--------------2-2-2-2-2-2----------------|
dramatic revelation riff (as i like to call it) played 4x------------------------------------------|------------------------------------------|---------9--------------11----------------|----9-10---10-9----9-10----10-9----9-10-9-|-12-------------12--------------12--------|------------------------------------------|
------------------------------------------|------------------------------------------|---------9--------------12----------------|----9-10---10-9----9-10----10-9----9-10-9-|-12-------------12--------------12--------|------------------------------------------|
(this and continuation 1 are meant to be played without pause, so don't let the break you! didn't have enough space)---------------------------------------------------------------------------|----------------------------------------12--------------10-----------------|---------9--------------11----------------------------------------------12-|----9-10---10-9----9-10----10-9----9-10----10-9----9-10----10-9----9-10----|-12-------------12--------------12--------------12--------------12---------|---------------------------------------------------------------------------|
continuation 1-------------------|-------------------|-------------------|------11vvv--------|-10-9--------------|-------------------|
and that goes over this chord progression:1st and 3rd time:---------------------------------------------|---------------------------------------------|---------------------------------------------|-2--------------5--------------7-------------|-2--------------5--------------7-------------|-0------0-0-0-0-3------0-0-0-0-5-------------|
2nd and 4th time:---------------------------------------------|---------------------------------------------|---------------------------------------------|-2--------------5--------------10------------|-2--------------5--------------10------------|-0------0-0-0-0-3------0-0-0-0-8-------------|
then the techno part, why not tab it for you guys? easy enough:-------19-15------19-15-------17-14------17-14--|----17---------17----------13---------13--------|------------------------------------------------|-14---------------------14----------------------|------------------------------------------------|------------------------------------------------|
-------15-12------15-12-------13---------13-----|----12---------12----------------13---------13--|---------------------------11---------11--------|-14---------------------10----------------------|------------------------------------------------|------------------------------------------------|
-------19-15------19-15-------17-14------17-14--|----17---------17----------13---------13--------|------------------------------------------------|-14---------------------14----------------------|------------------------------------------------|------------------------------------------------|
-------15-12------15-12-------13-10------15-14--|----13---------13----------12---------12--------|------------------------------------------------|-10----------------------9----------------------|------------------------------------------------|------------------------------------------------|
circle headbangin (all palm muted)------------------------------------------------------|------------------------------------------------------|------------------------------------------------------|-2-2-2----2-2-2----2-2-2----2-2-2--2-2-2-2-2---2-2-2--|-2-2-2----2-2-2----2-2-2----2-2-2--2-2-2-2-2---2-2-2--|-0-0-0----0-0-0----0-0-0----0-0-0--0-0-0-0-0---0-0-0--|
------------------------------------------------------|------------------------------------------------------|------------------------------------------------------|-2-2-2----2-2-2----2-2-2----2-2-2--2-2-2-2-2---2-2-2--|-2-2-2----2-2-2----2-2-2----2-2-2--2-2-2-2-2---2-2-2--|-0-0-0----0-0-0----0-0-0----0-0-0--0-0-0-0-0---0-0-0--|
------------------------------------------------------|------------------------------------------------------|------------------------------------------------------|-2-2-2----2-2-2----2-2-2----2-2-2--2-2-2-2-2---2-2-2--|-2-2-2----2-2-2----2-2-2----2-2-2--2-2-2-2-2---2-2-2--|-0-0-0----0-0-0----0-0-0----0-0-0--0-0-0-0-0---0-0-0--|
------------------------------------------------------|------------------------------------------------------|------------------------------------------------------|-2-2-2----2-2-2----2-2-2----2-2-2--2-2-5-5-5---4-4-4--|-2-2-2----2-2-2----2-2-2----2-2-2--2-2-5-5-5---4-4-4--|-0-0-0----0-0-0----0-0-0----0-0-0--0-0-3-3-3---2-2-2--|
solo ? sorry guys, don't have the patience to sit and figure it out, but i do know thne rythm part!!!!!
all 6's on low E are palm muted---------------------------------------------------|---------------------------------------------------|---------------------------------------------------|-8-------8-------8-------8-------------------------|-8-------8-------8-------8-------------------------|-6---6-6-6---6-6-6---6-6-6---6-6-6-6-6-6-6-6-6-6---|
---------------------------------------------------|---------------------------------------------------|---------------------------------------------------|-8-------8-------8-------8-------------------------|-8-------8-------8-------8-------------------------|-6---6-6-6---6-6-6---6-6-6---6-6-6-6-6-6-6-6-6-6---|
---------let---------------------------------------|--------------this---------------------------------|-------------------chord---------------------------|-2-----------------------ring----------------------|-2-----------------------------through-------------|-0--------------------------------------out--------|
---------------------------------------------------|---------------------------------------------------|---------------------------------------------------|-8-------8-------8-------8-------------------------|-8-------8-------8-------8-------------------------|-6---6-6-6---6-6-6---6-6-6---6-6-6-6-6-6-6-6-6-6---|
---------------------------------------------------|---------------------------------------------------|---------------------------------------------------|-8-------8-------8-------8-------------------------|-8-------8-------8-------8-------------------------|-6---6-6-6---6-6-6---6-6-6---6-6-6-6-6-6-6-6-6-6---|
-----------------------------------------------|-----------------------------------------------|-----------------------------------------------|-2-----------------------------------7---------|-2-----------------------------------7---------|-0-----------------------------------5---------|
then back to the riffs you already know, }:D tabbed by randy the metal maker.
Please rate this tab:
x1.0