Morse Steve - Madoc tab

#----------------------------------PLEASE NOTE---------------------------------#
#This file is the author's own work and represents their interpretation of the #
#song. You may only use this file for private study, scholarship, or research. #
#------------------------------------------------------------------------------##
From: Go Whalers 

Here is the tab to "Modoc" by Steve Morse, off of 1989's album
"High Tension Wires". The guitar is actually in stereo, with each
string alternately going from left to right. This makes transcribing
a bit easier, since if you hear a particular note and it could be
on two strings, you need only listen to which side of the stereo it's
coming out of. Anyway, without further ado:

"Modoc":


Tuning: From low to high, Eb Bb Eb G Bb Eb

Notation: / means slide up, h and p are hammer-on and pull-off,
H means natural harmonic, i.e. 12H is the natural harmonic on the
12th fret. In the case of 0h12H, you play the open string and
then lightly touch above the 12th fret to get the harmonic.


--9---------0-------------------------9h10p9---------0------|----12H-------0-----0------------------------12H-------0----|--------12H-----0-1---0-----0--------------------12H--------|------------------------0-2-------0-------------------------|------------------------------0-4---------------------------|-0----------------------------------0-----------------------|
-----------------2-----10p9---------0-----------------------|-----0-----------0----------12H-------0-----0---------------|-0-1---0h1p0-----1--------------12H-----0-1---0-----0-------|-------------0h2-2------------------------------0-2-------0-|-----------------0------------------------------------0-4---|---------------------0--------------------------------------|
---10p9---------0-------------------------|-7--------7------|--------12H-------0-----0-----------------|----0-------0----|------------12H-----0-1---0h1p0-----------|------0----------|--------------------------------2---0h12H-|--------0--------|----------------------------------0-------|-----------------|-0----------------------------------------|-----------------|
-5-------5----4h5-------4----2-------2h4p2--0-------0-------|---7-------7------5-------5----0-------0------2-------0-----|-----7--------------0------------1--------------0-----------|-------0--------------0------------2--------------0---------|-0---------------------------0--------------2---------------|--------------0---------------------------------------------|
---------4--------------------------------7-------7h9p7-----|---0-------0----0------0-------0-----0------0-------0-------|-----5------------0------0-------0-----0------0-------------|-------5------------0--------------0------------0-----------|---------------------------0h4------------------------------|-5------------0---------------------------0-----------------|
-5-------5----4h5-------7----2-------2h4p2--0-------0-------|---7-------7------5-------5----0-------0------2-------0-----|-----7--------------0------------1--------------0-----------|-------0--------------0------------2--------------0---------|-0---------------------------0--------------2---------------|--------------0---------------------------------------------|
-2--------2---------------------------7--------12p7----5----|----2-------2--7------------------7-----0-----------0-------|------2-----------5-----5-------7---------0-----------------|--------2-----------5-----5---7-------------0---------------|-------------------------------------------------------0----|-2-------------5------6-----7---------0---------------------|
-------9p5----4h5-------7----2--------2h4p2--0-------0------|-7---------0------5-------5----0--------0------2-------0----|---7----------------0------------1---------------0----------|-----0----------------0------------2---------------0--------|-----------------------------0---------------2--------------|--------------0---------------------------------------------|
---------4----------------------------|-----0-2-2h4p2p0-4-5-|---0-------0---0------0-------0-----0-|-0-2-----------------|-----5-----------0------0-------0-----|---------0-----------|-------5-----------0--------------0---|---------------------|--------------------------0h4---------|---------------------|-5-----------0------------------------|-5-------0-----------|
-7-7-------0-----------------------4----2p0-----------------|-----------0----2-----0--------------0------0-----4---------|-----7---7--------0-----0----5----------------1-----1-------|--------------------0----------5----------------2-----------|-------4------2-------------------------0-------------------|-4-------------------------5-----5--------------------------|
-0-------------|----------------------------------------------|---0-----0-----|----------------------------------------------|-1---1-----1-0-|--------7-------7----5h7-------8-----8/10-----|-------0-------|-4-5-7----7-------7------5-------5------------|---------------|------------4--------------5------------------|-0-------------|--------4-----4------5-------5-----0----------|
------------------------------------------------------------|-----------------------------------------------5------------|-12---------12-------12------12---------10-------6----------|-----9---------9--------9-------12---------10------5--------|-------12--------12-------12--------9----------------5------|----------0---------0---------9-------10-------5------------|
------------------------------------------------------------|---------0--------------------------------------------------|-5h6p5-----0-----0--------------7-------7---5h7-------8-----|-------5-----0-----0-----4-5-7----7-------7-----5-------5---|---------------0------0-------------4-------------5---------|---------0----------------------4-----4-----5-------5-----5-|
-------------------------------------------9-------7--------|---------------------------------------------5-------5------|-8/15-15-------------------12--------12--------5------------|---------0------0-----0-------12--------12-------5----------|-----------0------0-----0--------9--------------------------|-------0-----0------0--------------9-------5----------------|
-------------------11-------9---|-7-------7------|-10----------10-------7-------7-|---0-------0----|----10----------10------7-------|-----0----------|-------10-10--------------7-----|-------0--------|--------------------------------|----------------|-10----------------7------------|-0--------------|
-5-------5----4h5-------4----2-------2h4p2--0-------0-------|---7-------7------5-------5----0-------0------2-------0-----|-----7--------------0------------1--------------0-----------|-------0--------------0------------2--------------0---------|-0---------------------------0--------------2---------------|--------------0---------------------------------------------|
---------4--------------------------------7-------7h9-------|---0-------0----0------0-------0-----0------9---------9-----|-----5------------0------0-------0-----0------0-------------|-------5------------0--------------0------------0-----------|---------------------------0h4------------------------------|-5------------0---------------------------0-----------------|
-5-------5----4h5-------7----2-------2h4p2--0-------0-------|---7-------7------5-------5----0-------0------2-------0-----|-----7--------------0------------1--------------0-----------|-------0--------------0------------2--------------0---------|-0---------------------------0--------------2---------------|--------------0---------------------------------------------|
-2-------2----5-7-9--10-12-14--12p7-------0-----------------|---2-------2--5------10-------------9-------0---------------|-----2--------5------10---------------0---------------------|-------2--------------------------------0-------------------|------------------------------------------------------------|-2------------5------10--------0----------------------------|
-5-------5----4h5-------7----2-------2h4p2--0-------0-------|---7-------7------5-------5----0-------0------2-------0-----|-----7--------------0------------1--------------0-----------|-------0--------------0------------2--------------0---------|-0---------------------------0--------------2---------------|--------------0---------------------------------------------|
---------4------------------------------|---0-------0----0------0-------0------0-|-----5------------0------0-------0------|-------5------------0--------------0----|---------------------------0h4----------|-5------------0-------------------------|
-----0-2-2h4p2p0-4-5-|-0-2-----------------|---------0-----------|---------------------|---------------------|-5-------0-----------|
-7-7-------0-----------------------4----2p0-----------------|-----------0----2-----0--------------0------0-----4---------|-----7---7--------0-----0----5----------------1-----1-------|--------------------0----------5----------------2-----------|-------4------2-------------------------0-------------------|-4-------------------------5-----5--------------------------|
-0-------------|---0-----0-----|-1---1-----1-0-|-------0-------|---------------|-0-------------|
--9---------0-------------------------9h10p9---------0------|----12H-------0-----0------------------------12H-------0----|--------12H-----0-1---0-----0--------------------12H--------|------------------------0-2-------0-------------------------|------------------------------0-4---------------------------|-0----------------------------------0-----------------------|
-----------------2-----10p9---------0-----------------------|-----0-----------0----------12H-------0-----0---------------|-0-1---0h1p0-----1--------------12H-----0-1---0-----0-------|-------------0h2-2------------------------------0-2-------0-|-----------------0------------------------------------0-4---|---------------------0--------------------------------------|
--9h10p9---------0----------------------------|---------12H-------0-----0-----------------5H-|-------------12H-----0-1---0h1p0-----------5H-|---------------------------------2---0h12H-5H-|-----------------------------------0-------5H-|-0-----------------------------------------5H-|
Dave dshapiro@ucsd.edu
Tap to rate this tab
 
# A B C D E F G H I J K L M N O P Q R S T U V W X Y Z