Motion City Soundtrack - Even If It Kills Me tab version 1

1. Fell In Love Without You


Intro / Main Riff

e|--------------------------------------------------|B|--------------------------------------------------|G|-444--888------------------444--888---------------|D|-444--888--444--222--------444--888--44444444-----| x 2A|-222--666--444--222--------222--666--44444444-----|E|-----------222--000------------------22222222-----|
Chorus
e|-----------------------------------------------------|B|-----------------------------------------------------|G|-------------4444444444----------222222--444444444444|D|-2222222222--4444444444--666666--222222--444444444444| x 2A|-2222222222--2222222222--666666--000000--222222222222|E|-0000000000--------------444444----------------------|
Solo
e|-------------------------------------------------------------------|B|-------7------------------7------------7--5--4--2--5--4------------|G|-1--4------4--3--4-----4-----4--3--4---------------------1-letring-|D|--------------------4----------------------------------------------|A|-------------------------------------------------------------------|E|-------------------------------------------------------------------|
Solo Cont. 1
e|--------7-9-7--11-12-11---------7-9-7--11-12-11--11-12-11--7-9-7---|B|-7-9-7-------------------7-9-7-------------------------------------|G|-------------------------------------------------------------------|D|-------------------------------------------------------------------|A|-------------------------------------------------------------------|E|-------------------------------------------------------------------|
Solo Cont. 2
e|-6-11-6-11--12-11-11-7-7-11-7-11-11 letring-------|B|--------------------------------------------------|G|--------------------------------------------------|D|--------------------------------------------------|A|--------------------------------------------------|E|--------------------------------------------------|
Solo Cont. 4 - This is the only bit thats not perfect but mess about a bit and its close.
e|-7-9-11-11-11-11-11-11-11-11-7-7-7-14-14-14-14-11-11-11-11--|B|------------------------------------------------------------|G|------------------------------------------------------------|D|------------------------------------------------------------|A|------------------------------------------------------------|E|------------------------------------------------------------|
Last Chorus - Same as before but higher chords for a bit
e|------------------------------------------------------------|B|-666--101010------------------666--101010-------------------|G|-666--101010--666--444--------444--101010--66666666---------|D|-444--8-8-8---666--444--------444--8-8-8---66666666---------| x 2A|--------------444--222---------------------44444444---------|E|------------------------------------------------------------|
e|-----------------------------------------------------|B|-----------------------------------------------------|G|-------------6666666666----------444444--666666666666|D|-4444444444--6666666666--888888--444444--666666666666| x 2A|-4444444444--4444444444--888888--222222--444444444444|E|-2222222222--------------666666----------------------|
Then back to original chorus once:
e|-----------------------------------------------------|B|-----------------------------------------------------|G|-------------4444444444----------222222--444444444444|D|-2222222222--4444444444--666666--222222--444444444444|A|-2222222222--2222222222--666666--000000--222222222222|E|-0000000000--------------444444----------------------|
Outro Chorus
e|--------------------------------------------------|B|--------------------------------------------------|G|-----2>-------------------------------------------|D|-6>--2>--2>---------------------------------------|A|-6>--0>--2>---------------------------------------|E|-4>------0>---------------------------------------|
2. This Is For Real
|----------------------------------------------------------------------------||----0---0---0---0---4---4---4---4----14----14----14----14----14----14-14b---||--4---4---4---4---4---4---4---4---13----13----13----13----16----16----17b---||----------------------------------------------------------------------------||----------------------------------------------------------------------------||----------------------------------------------------------------------------|
CHORUS|------------------------------------------||------------------------------------------||------2-2-----2-2-----2-2---------4-4-4-4-||--2-2-2-2-6-6-2-2-2-2-2-2-4-4-4-4-4-4-4-4-||--2-2-0-0-6-6-0-0-2-2-0-0-4-4-4-4-2-2-2-2-||--0-0-----4-4-----0-0-----2-2-2-2---------|
.
|------------------------------------------||------------------------------------------||------2-2-----2-2-----2-2--------4--------||--2-2-2-2-6-6-2-2-2-2-2-2-4------4-(x8)---||--2-2-0-0-6-6-0-0-2-2-0-0-4-(x8)-2--------||--0-0-----4-4-----0-0-----2---------------|
SOLO: ( ) = guitar 2|------------------------------------------------------------------------||------------------------------------------------------------------------||---------------------------------------------(13)-----------------------||-----------------------------------(11)-(14)----------------------------||--7-7-7-9-11-7-(12)-(12)-(12)-(14)----------------11-11-11-11-11-7-9b11-||------------------------------------------------------------------------|
|----------------------------------------------------------------------------||----0---0---0---0---4---4---4---4----14----14----14----14----14----14-14b---||--4---4---4---4---4---4---4---4---13----13----13----13----16----16----17b---||----------------------------------------------------------------------------||----------------------------------------------------------------------------||----------------------------------------------------------------------------|
CHORUS|------------------------------------------||------------------------------------------||------2-2-----2-2-----2-2---------4-4-4-4-||--2-2-2-2-6-6-2-2-2-2-2-2-4-4-4-4-4-4-4-4-||--2-2-0-0-6-6-0-0-2-2-0-0-4-4-4-4-2-2-2-2-||--0-0-----4-4-----0-0-----2-2-2-2---------|
|------------------------------------------||------------------------------------------||------2-2-----2-2-----2-2---------4-4-4-4-||--2-2-2-2-6-6-2-2-2-2-2-2-4-4-4-4-4-4-4-4-||--2-2-0-0-6-6-0-0-2-2-0-0-4-4-4-4-2-2-2-2-||--0-0-----4-4-----0-0-----2-2-2-2---------|
|-------------------------------------||-------------------------------------||-----------2-2-2-2--6-6-6-6--4-4-4-4-||--2-2-2-2--2-2-2-2--6-6-6-6--4-4-4-4-| X4|--2-2-2-2--0-0-0-0--4-4-4-4--2-2-2-2-||--0-0-0-0----------------------------|
|-----------------------------------||-----------------------------------||--2-2-2-2-2-2-2-2--5-5-5-5-5-5-5-5-||--2-2-2-2-2-2-2-2--5-5-5-5-5-5-5-5-||--0-0-0-0-0-0-0-0--3-3-3-3-3-3-3-3-||-----------------------------------|
BRIDGE: [Play the first line twice]|-----------------------------------------------------------------------------||----------------------------------------------------------10-10-10-9-9-9-9-9-||--8-8-8-8-8-8-8-8-9-9-9-9-9-9-9-9-11-11-11-11-11-11-11-11--------------------||-----------------------------------------------------------------------------||-----------------------------------------------------------------------------||-----------------------------------------------------------------------------|
|------------------------------------------------------------------------||--10-10-10-9-9-9-10-10-10-9-9-9-7-7-9-9---------------------------------||----------------------------------------9-9-9-9-9-9-9-9-----------------||--------------------------------------------------------9-9-9-9-9-9-9-9-||------------------------------------------------------------------------||------------------------------------------------------------------------|
|--------------------------------------------------------------------------||--------------------------------------------------------------------------||--------------------------------------------------11-11-11-11-11-11-11-11-||--13-13-13-13-13-13-13-13-14-14-14-14-14-14-14-14-------------------------||--------------------------------------------------------------------------||--------------------------------------------------------------------------|
|--------------------------||--------------------------||--12-12-12-12-12-12-12-12-||--------------------------||--------------------------||--------------------------|
|------------------------------------------||------------------------------------------||------2-2-----2-2-----2-2---------4-4-4-4-||--2-2-2-2-6-6-2-2-2-2-2-2-4-4-4-4-4-4-4-4-||--2-2-0-0-6-6-0-0-2-2-0-0-4-4-4-4-2-2-2-2-||--0-0-----4-4-----0-0-----2-2-2-2---------|
|-------------------------------------||-------------------------------------||-----------2-2-2-2--6-6-6-6--4-4-4-4-||--2-2-2-2--2-2-2-2--6-6-6-6--4-4-4-4-| X8|--2-2-2-2--0-0-0-0--4-4-4-4--2-2-2-2-||--0-0-0-0----------------------------|
|-----------------------------------||-----------------------------------||--2-2-2-2-2-2-2-2--5-5-5-5-5-5-5-5-||--2-2-2-2-2-2-2-2--5-5-5-5-5-5-5-5-||--0-0-0-0-0-0-0-0--3-3-3-3-3-3-3-3-||-----------------------------------|
3. It Had To Be You Intro/Verse 1 (I get lost...never even called)
Eb|----------------------------------------------------------------------------------------------|Bb|-7-----7-----7-----7-----7-----7-----7-----7-----7-----7-----7-----7-----7-----7-----7-----7--|Gb|----9-----------9-----------9-----------9-----------8-----------8-----------8-----------8-----|Db|----------9-----------9-----------9-----------9-----------9-----------9-----------9----------9|Ab|----------------------------------------------------------------------------------------------|Eb|----------------------------------------------------------------------------------------------|
Pre chorus 1 (Do you feel...type of harmony)
Eb|-----------------------------------|Bb|-----------------------------------|Gb|-2-----------4-----2-----------4---|Db|-2-----2-----4-----2-----2-----4---|Ab|-0-----2-----2-----0-----2-----2---|Eb|-------0-----------------0---------|
Chorus(What if it was you...pretending we were wrong)
Eb|-------------------------------|Bb|-------------------------------|Gb|-------------------------------|Db|-2---4---7-----2---4---7---9---|Ab|-2---4---7-----2---4---7---9---|Eb|-0---2---5-----0---2---5---7---|
Pre chorus 1 (Do you feel...type of harmony)
Eb|-----------------------------------|Bb|-----------------------------------|Gb|-2-----------4-----2-----------4---|Db|-2-----2-----4-----2-----2-----4---|Ab|-0-----2-----2-----0-----2-----2---|Eb|-------0-----------------0---------|
Verse 2(Let's get wrecked...I can't wait)
Eb|---------|Bb|---------|Gb|-----4---|Db|-2---4---| x4Ab|-2---2---|Eb|-0-------|
Pre Chorus 2 (Do you spend...frying pan)
Eb|-------------------------|Bb|-------------------------|Gb|-2-------4---2-------4---|Db|-2---2---4---2---2---4---| (Hold notes until the final chord)Ab|-0---2---2---0---2---2---|Eb|-----0-----------0-------|
Bridge (It seemed like a dream....who we are)
Eb|-----------------------|Bb|-----------------------|Gb|-----------------------|Db|---2---7---4---7---2---| x2Ab|---2---7---4---7---2---|Eb|---0---5---2---5---0---|
Ending
Eb|---------------------------|Bb|---------------------------|Gb|---------------------------|Db|---2---4---7---9---2---6---|Ab|---2---4---7---9---2---6---|Eb|---0---2---5---7---0---4---|
ORDER: Intro/Verse 1 Pre chorus 1 Chorus Verse 2 Pre Chorus 2 Chorus Bridge Intro/Verse 1 Pre chorus 1 Chorus Ending 4. Last Night
INTRO GUITAR 1|-----------------------------------------||-----------------------------------------||----11---11---11---11---11---11---11--11-||-----------------------------------------||-----------------------------------------||-10---10---10---10---10---10---10---10---|
VERSE GUITAR 1|--------------------------------------------------------------||--------------------------------------------------------------||----11---11---11---11---11---11---11---11---11---11---11---11-||--------------------------------------------------------------||--------------------------------------------------------------||-10---10---10---10---10---10---10---10---10---10---10---10----|
|--------------------------||--------------------------||-----12----12----12----12-||--------------------------||--------------------------||--12----12----12----12----|
|-------------------------------------------------------------||-------------------------------------------------------------||----7----7----7----7----7----7----7----7----7----7----7----7-||-------------------------------------------------------------||-------------------------------------------------------------||-7----7----7----7----7----7----7----7----7----7----7----7----|
|-------------------------||-------------------------||-----6-----6-----6-----6-||-------------------------||-------------------------||--5-----5-----5-----5----|
CHORUS GUITAR 1|--------------------------------------||--------------------------------------||----2----2----2----2----2----2----2---||--------------------------------------||--------------------------------------||-3----3----3----3----3----3----3----3-|
|-----------------------------------------||-----------------------------------------||----6----6----6-----6---6----6----6----6-||-----------------------------------------||-----------------------------------------||-5----5----5----5----5----5----5----5----|
|-------------------------------------------------------------||-------------------------------------------------------------||----7----7----7----7----7----7----7----7----7----7----7----7-||-------------------------------------------------------------||-------------------------------------------------------------||-7----7----7----7----7----7----7----7----7----7----7----7----|
|-------------------------||-------------------------||-----6-----6-----6-----6-||-------------------------||-------------------------||--5-----5-----5-----5----|
|--------------------------------------||--------------------------------------||----2----2----2----2----2----2----2---||--------------------------------------||--------------------------------------||-3----3----3----3----3----3----3----3-|
|-----------------------------------------||-----------------------------------------||----6----6----6-----6---6----6----6----6-||-----------------------------------------||-----------------------------------------||-5----5----5----5----5----5----5----5----|
BRIDGE GUITAR 1|----------------------------------------||----------------------------------------||----11---11---11---11---11---11---11----||----------------------------------------| x2|----------------------------------------||-10---10---10---10---10---10---10---10--|
|--------------------------------------||--------------------------------------||----2----2----2----2----2----2----2---||--------------------------------------||--------------------------------------||-3----3----3----3----3----3----3----3-|
|-----------------------------------------||-----------------------------------------||----6----6----6-----6---6----6----6----6-||-----------------------------------------||-----------------------------------------||-5----5----5----5----5----5----5----5----|
|-----------------------------------------||-----------------------------------------||----0----0----0-----0---0----0----0----0-||-----------------------------------------||-----------------------------------------||-0----0----0----0----0----0----0----0----|
|---------------------------------------||---------------------------------------||----11---11---11---11---11---11---11---||---------------------------------------||---------------------------------------||-10---10---10---10---10---10---10---10-|
|--------------------------------------||--------------------------------------||----2----2----2----2----2----2----2---||--------------------------------------||--------------------------------------||-3----3----3----3----3----3----3----3-|
|-----------------------------------------||-----------------------------------------||----6----6----6-----6---6----6----6----6-||-----------------------------------------||-----------------------------------------||-5----5----5----5----5----5----5----5----|
|-----------------------------------------||-----------------------------------------||----0----0----0-----0---0----0----0----0-||-----------------------------------------||-----------------------------------------||-0----0----0----0----0----0----0----0----|
|---------------------------------------||---------------------------------------||----11---11---11---11---11---11---11---||---------------------------------------||---------------------------------------||-10---10---10---10---10---10---10---10-|
|--------------------------------------||--------------------------------------||----2----2----2----2----2----2----2---||--------------------------------------||--------------------------------------||-3----3----3----3----3----3----3----3-|
|-----------------------------------------||-----------------------------------------||----6----6----6-----6---6----6----6----6-||-----------------------------------------||-----------------------------------------||-5----5----5----5----5----5----5----5----|
ORDER GUITAR 1 INTRO x2 VERSE x2 CHORUS x1 VERSE x4 CHORUS x1 INTRO X2 VERSE X2 CHORUS x1 BRIDGE X1 VERSE x2 CHORUS x2 INTRO X4 5. Calling All Cops
Verse:e|-----------------------------------------------|B|-----------------------------------------------|G|--66666666-------------------------------------|D|--66666666--44444444--88888888--66666666-(X4)--|A|--44444444--44444444--88888888--66666666-------|E|------------22222222--66666666--44444444-------|"Calling all cops and autobots, I hope that your still there."
Riff 1:e|-999-9-8-999-9-8-999-9-8-999-9-8----------|B|------------------------------------------|G|------------------------------------------| (X2)D|------------------------------------------|A|------------------------------------------|E|------------------------------------------|
Verse 2:e|-----------------------------------------------|B|-----------------------------------------------|G|--66666666-------------------------------------|D|--66666666--44444444--88888888--66666666-(X4)--|A|--44444444--44444444--88888888--66666666-------|E|------------22222222--66666666--44444444-------|"Calling all dolls and concert halls, the curtain hits the cast."
Riff 1:e|-999-9-8-999-9-8-999-9-8-999-9-8----------|B|------------------------------------------|G|------------------------------------------|D|------------------------------------------|A|------------------------------------------|E|------------------------------------------|
Chorus:e|------------------------------------------|B|------------------------------------------|G|--66666666--------------------------------|D|--66666666--44444444--88888888--66666666--|A|--44444444--44444444--88888888--66666666--|E|------------22222222--66666666--44444444--|"When I'm awake I make the same mistakes they make."
Part2:e|---------------------------------------------|B|---------------------------------------------|G|--66666666------------66-6-8-6---66-6-8-6----|D|--66666666--44444444--66-6-8-6-4-66-6-8-6-4--|A|--44444444--44444444--44-4-6-4-4-44-4-6-4-4--|E|------------22222222-----------2----------2--|"When I'm awake I can't escape."
Part3:e|------------------------------------------|B|------------------------------------------|G|--66666666--------------------------------|D|--66666666--44444444--88888888--66666666--|A|--44444444--44444444--88888888--66666666--|E|------------22222222--66666666--44444444--|"When I'm awake I make the same mistakes they make."
Part4:e|------------------------|B|------------------------|G|--66666666--------------|D|--66666666--44444444----|A|--44444444--44444444----|E|------------22222222----|"And everything just falls apart."
Verse 3:e|------------------------------------------------|B|------------------------------------------------|G|--66666666--------------------------------------|D|--66666666--44444444--88888888--66666666-(X4)-4-|A|--44444444--44444444--88888888--66666666------4-|E|------------22222222--66666666--44444444------2-|"Calling all cops and autobots, I hope that your still there."
Riff 1:e|-999-9-8-999-9-8-999-9-8-999-9-8----------|B|------------------------------------------|G|------------------------------------------| X2D|------------------------------------------|A|------------------------------------------|E|------------------------------------------|
-Then Chorus -Then Part2 -Then Chorus -Then Part2
Outro:e|-------------------------|B|-------------------------|G|--4-----6----------------|D|--4--4--6-(LET-RING)-----|A|--2--4--4----------------|E|-----2-------------------|
6. Can't Finish What You Started
e --------------------------------------------------------------|B ----------------------5-5-------5-5---------------------------|G --7-7--x-x--7-7--x-x--6-6--x-x--6-6--x-x--4-4--x-x--4-4--x-x--|D --7-7--x-x--7-7--x-x--x-x--x-x--x-x--x-x--x-x--x-x--x-x--x-x--|A --5-5--x-x--5-5--x-x--5-5--x-x--5-5--x-x--5-5--x-x--5-5--x-x--|E --------------------------------------------------------------|
e --------------------------------------------------------------|B --------------------------------------------------------------|G --4-4--x-x--4-4--x-x------------------------------------------|D --x-x--x-x--x-x--x-x------------------------------------------|A --5-5--x-x--5-5--x-x------------------------------------------|E --------------------------------------------------------------|
Keyboard/Moog for Guitar Intro X2
e --------------------------------------------------------------|B ------7---8-7----------8-7---7------7---8-7----------8-7---7--|G ----7---7-----7-9--7-9-----7------7---7-----7-9--7-9-----7----|D --7-----------------------------7-----------------------------|A --------------------------------------------------------------|E --------------------------------------------------------------|
Verse X8 (Same as intro) Chorus
e --------------------------------------------------------------|B --------------------------------------------------------------|G ----------7--------------------------7-7-4--------------------|D --5---7---7---7----X2-then---5---7---7-7-4---5---7------------|A --5---7---5---7--------------5---7---5-4-2---5---7------------|E --3---5-------5--------------3---5-----------3---5------------|
Bridge (something something close to this at least)
Clean strumming pattern not included softly palm mutede --------------------------------------------------------------|B --------------------------------------------------------------|G --------------------------------------------------------------|D --7----11---4----2--------------------------------------------|A --5----9----2----3--------------------------------------------|E --------------------------------------------------------------|
End of last chorus (ring out)
e --------------------------------------------------------------|B -------2------------------------------------------------------|G --0----2------------------------------------------------------|D --0----2------------------------------------------------------|A --2----0------------------------------------------------------|E --3-----------------------------------------------------------|
Outro first just intro then
e --------------------------------------------------------------|B --------------------------------------------------------------|G -------------6/7--------------7~------------------------------|D --5---9---7--x/x-----end on---7~------------------------------|A --5---9---7--4/5--------------5~------------------------------|E --3---7---5---------------------------------------------------|
7. The Conversation Intro: Dsus2 Dsus2 A Do you remember how we met? Dsus2 A Silhouetted by the lights... Dsus2 A Bm A You were drunk and tried to take a mental picture with your hands Dsus2 A I was thinking about that Dsus2 A And a bunch of other things Dsus2 A Stop looking at the floor... Bm A G Bm I need to pour out this expansive dose of words. A G Bm I can't explain... A G Dsus2 I need to be alone. Dsus2 A I know the timing isn't great Dsus2 A But these things, you just can't plan. Dsus2 A I just need a little time Bm A So I can find myself again Dsus2 A 'Cause I get buried underneath Dsus2 A All the things they think you are Dsus2 A Bm And I'm too tired to pretend it doesn't hurt A To be left out Dsus2 A I had a pocket full of dreams Dsus2 A But I gave them all to you Dsus2 A Now I think I want them back Bm A G Bm So can you tell me if I'm crazy or confused? A G Bm Don't ever change A G Bm The way you are A G Gm Dsus2 (play the last G as a barre chord) I've never loved anyone more. A Dsus2 End on Dsus2 8. Broken Heart
Verse [x2]:e|-----------------------------------------------------------------|B|-----------------------------------------------------------------|G|-----------------------------------------------------------------|D|-----------------------------------------------------------------|A|-9-9-9-9-9-9-9-9-8-8-8-8-8-8-8-8-6-6-6-6-6-6-6-6-4-4-4-4-4-4-4-4-|E|-----------------------------------------------------------------|
e|-----------------------------------------------------------------|B|-----------------------------------------------------------------|G|-----------------------------------------------------------------|D|-9-9-9-9-9-9-9-9-8-8-8-8-8-8-8-8-6-6-6-6-6-6-6-6-6-6-6-6-6-6-6-6-|A|-----------------------------------------------------------------|E|-----------------------------------------------------------------|
Pre Chorus:e|-------|B|-------|G|-4---6-|D|-4-4-6-|A|-2-4-4-|E|---2---|
Chorus:e|-------------|B|-------------|G|-8-6-4-----4-|D|-8-6-4-4-2-4-|A|-6-4-2-4-2-2-|E|-------2-0---|
Post Chorus:e|--------------------------------------------------------------------|B|--------------------------------------------------------------------|G|---6------8------11-------15-13-11-10-11-----11-11-----11p10-10-----|D|--------------------------------------------------------------------|A|-9----9-8----8-6-----6-4------------------14-------13---------------|E|--------------------------------------------------------------------|
Verse:e|-----------------------------------------------------------------|B|-----------------------------------------------------------------|G|-----------------------------------------------------------------|D|-----------------------------------------------------------------|A|-9-9-9-9-9-9-9-9-8-8-8-8-8-8-8-8-6-6-6-6-6-6-6-6-4-4-4-4-4-4-4-4-|E|-----------------------------------------------------------------|
e|-----------------------------------------------------------------|B|-----------------------------------------------------------------|G|-----------------------------------------------------------------|D|-9-9-9-9-9-9-9-9-8-8-8-8-8-8-8-8-6-6-6-6-6-6-6-6-6-6-6-6-6-6-6-6-|A|-----------------------------------------------------------------|E|-----------------------------------------------------------------|
Pre Chorus:e|-------|B|-------|G|-4---6-|D|-4-4-6-|A|-2-4-4-|E|---2---|
Chorus:e|-------------|B|-------------|G|-8-6-4-----4-|D|-8-6-4-4-2-4-|A|-6-4-2-4-2-2-|E|-------2-0---|
Bridge:e|---------------------------------------------------------------------|B|----------7h9h11p9p7-----------------------------7h9h11p9p7----------|G|-9--8--6---------------9--8--11-11b-11--9--8--6-------------9--8-11b-|D|---------------------------------------------------------------------|A|---------------------------------------------------------------------|E|---------------------------------------------------------------------|
Pre Chorus:e|-------|B|-------|G|-4---6-|D|-4-4-6-|A|-2-4-4-|E|---2---|
Chorus:e|-------------| e|---|B|-------------| B|---|G|-8-6-4-----4-| G|-4-|D|-8-6-4-4-2-4-| End On D|-4-|A|-6-4-2-4-2-2-| A|-2-|E|-------2-0---| E|---|
9. Hello Helicopter B D# C# Hello helicopter, are you here to stay? Bodies, rest and motion fighting night and day Well, it's kill or be killed and one day we'll get the best of them Hello helicopter, will you be my friend? Will you take me away? B D# C# Hello helicopter, have you heard the news? No one gives a damn about the things they do We all waste and consume Destroy and ruin everything we touch It's easy not to think when you're not told that much F#m A# D# I'm not saying anything you haven't heard before I'm just trying to understand the way we are B D# C# Hello helicopter, are you lost out there? Swimming through the garbage dump that fills the air In several years, no one will care They'll be rich and dead So let somebody else devise a cure for it F#m A# D# I'm not saying anything you haven't heard before I'm just trying to understand the way we are F#m A# D# Nobody seems to care Nobody ever learns B D# C# Hello helicopter, are you here to stay? Bodies, rest and motion fighting night and day Well, it's kill or be killed and one day we'll get the best of them Hello helicopter, are you listening? F#m A# D# Nobody seems to care Nobody ever learns C# F#m A# G# Are we ever gonna get it right? Are we ever gonna start making sense and stop pretending that we care? C# F#m A# G# Are we ever gonna get it right? Are we ever gonna start making sense and stop pretending that we care? C# F#m A# G# Are we ever gonna get it right? Are we ever gonna start making sense and stop pretending? B D# C# Hello helicopter, are you here to stay? Bodies, rest and motion fighting night and day Well, it's kill or be killed and one day we'll get the best of them Hello helicopter, are you listening? 10. Where I Belong VERSE
e|--------------------------------------------------|B|--------------------------------------------------|G|--------------------------666-666666-666-666666---| x4D|---666-666666-666-666666--666-666666-666-666666---|A|---666-666666-666-666666--444-444444-444-444444---|E|---444-444444-444-444444--------------------------|
PRE-CHORUS
e|---------|B|---------|G|---------|D|---4-3---|A|---4-3---|E|---2-1---|
INTERLUDE
e|--------------------------------------------------|B|--------------------------------------------------|G|--------------------------666-666666-666-666666---|D|---666-666666-666-666666--666-666666-666-666666---|A|---666-666666-666-666666--444-444444-444-444444---|E|---444-444444-444-444444--------------------------|
e|--------------------------------------------|B|--------------------------------------------|G|--------------------------666-666666-666----|D|---666-666666-666-666666--666-666666-6664---|A|---666-666666-666-666666--444-444444-4444---|E|---444-444444-444-444444----------------2---|
VERSE
e|--------------------------------------------------|B|--------------------------------------------------|G|--------------------------666-666666-666-666666---| x3D|---666-666666-666-666666--666-666666-666-666666---|A|---666-666666-666-666666--444-444444-444-444444---|E|---444-444444-444-444444--------------------------|
PRE-CHORUS
e|------------------------------------|B|------------------------------------|G|------------------------------------|D|---4-3--666-666666-666-666666-4-3---|A|---4-3--666-666666-666-666666-4-3---|E|---2-1--444-444444-444-444444-2-1---|
CHORUS
e|--------------------------------------------------|B|--------------------------------------------------|G|--------------------------666-666666-444-444444---| x2D|---666-666666-666-666666--666-666666-444-444444---|A|---666-666666-666-666666--444-444444-222-222222---|E|---444-444444-444-444444--------------------------|
BRIDGE
e|-----------------------------------------------------------------|B|-----------------------------------------------------------------|G|--------4444----------------4444----------------4444-------------|D|---2222-4444-4444-6666-2222-4444-4444-6-xx-2222-4444-4444-6666---|A|---2222-2222-4444-6666-2222-2222-4444-6-xx-2222-2222-4444-6666---|E|---0000------2222-4444-0000------2222-4-xx-0000------2222-4444---|
e|-------------------|B|-------------------|G|-------------------|D|---4--3--6--4--2---|A|---4--3--6--4--2---|E|---2--1--4--2--1---|
CHORUS
e|--------------------------------------------------|B|--------------------------------------------------|G|--------------------------666-666666-444-444444---| x4D|---666-666666-666-666666--666-666666-444-444444---|A|---666-666666-666-666666--444-444444-222-222222---|E|---444-444444-444-444444--------------------------|
BRIDGE
e|--------------------------------------------------------------|B|--------------------------------------------------------------|G|--------4444----------------4444----------------4444----------|D|---2222-4444-4444-6666-2222-4444-4444-6-xx-2222-4444-4444-6---|A|---2222-2222-4444-6666-2222-2222-4444-6-xx-2222-2222-4444-6---|E|---0000------2222-4444-0000------2222-4-xx-0000------2222-4---|
11. Point of Extinction I could't figure it out. =( 12. Antonia Verse: 0:00 - 0:39 Guitar 1:
e|-------------------|-----------------|------------------|----------------|B|-------------------|-----------------|------------------|----------------|G|-------------------|-----------------|------------------|----------------|D|-------------------|-----------------|------------------|----------------|A|--9-9-9-9-9-9-9-9/-|-4-4-4-4-4-4-4-4-|-9-9-9-9-9-9-9-9/-|-4-4-4-4-4-4-4-4|E|--7-7-7-7-7-7-7-7/-|-2-2-2-2-2-2-2-2-|-7-7-7-7-7-7-7-7/-|-2-2-2-2-2-2-2-2|PM . . . . . . . . . . . . . . . . . . . . . . . . . . . . . . . .
(Continued)
e|-------------------|-----------------|------------------|----------------|B|-------------------|-----------------|------------------|----------------|G|-------------------|-----------------|------------------|----------------|D|-------------------|-----------------|-9-9-9-9-9-9-9-9--|----------------|A|--9-9-9-9-9-9-9-9/-|-4-4-4-4-4-4-4-4-|-7-7-7-7-7-7-7-7--|-9-9-9-9-9-9-9-9|E|--7-7-7-7-7-7-7-7/-|-2-2-2-2-2-2-2-2-|------------------|-7-7-7-7-7-7-7-7|PM . . . . . . . . . . . . . . . . . . . . . . . . . . . . . . . .
Guitar 1 and 2:
e|-----------------|-----------------|-----------------|-----------------|B|-----------------|-----------------|-----------------|-----------------|G|-4-4-4-4-4-4-4-4-|-----------------|-4-4-4-4-4-4-4-4-|-----------------|D|-4-4-4-4-4-4-4-4-|-4-4-4-4-4-4-4-4-|-4-4-4-4-4-4-4-4-|-4-4-4-4-4-4-4-4-|A|-2-2-2-2-2-2-2-2-|-4-4-4-4-4-4-4-4-|-2-2-2-2-2-2-2-2-|-4-4-4-4-4-4-4-4-|E|-----------------|-2-2-2-2-2-2-2-2-|-----------------|-2-2-2-2-2-2-2-2-|
(Continued)
e|-----------------|-----------------|-----------------|-----------------|B|-----------------|-----------------|-----------------|-----------------|G|-4-4-4-4-4-4-4-4-|-----------------|-9-9-9-9-9-9-9-9-|-4-4-4-4-4-4-4-4-|D|-4-4-4-4-4-4-4-4-|-4-4-4-4-4-4-4-4-|-9-9-9-9-9-9-9-9-|-4-4-4-4-4-4-4-4-|A|-2-2-2-2-2-2-2-2-|-4-4-4-4-4-4-4-4-|-7-7-7-7-7-7-7-7-|-2-2-2-2-2-2-2-2-|E|-----------------|-2-2-2-2-2-2-2-2-|-----------------|-----------------|
(Continued)
e|-----------------|-----------------|-----------------|-----------------|B|-----------------|-----------------|-----------------|-----------------|G|-4-4-4-4-4-4-4-4-|-----------------|-4-4-4-4-4-4-4-4-|-----------------|D|-4-4-4-4-4-4-4-4-|-4-4-4-4-4-4-4-4-|-4-4-4-4-4-4-4-4-|-4-4-4-4-4-4-4-4-|A|-2-2-2-2-2-2-2-2-|-4-4-4-4-4-4-4-4-|-2-2-2-2-2-2-2-2-|-4-4-4-4-4-4-4-4-|E|-----------------|-2-2-2-2-2-2-2-2-|-----------------|-2-2-2-2-2-2-2-2-|
(Continued)
e|-----------------|-----------------|B|-----------------|-----------------|G|-4-4-4-4-4-4-4-4-|-----------------|D|-4-4-4-4-4-4-4-4-|-4-4-4-4-4-4-4-4-|A|-2-2-2-2-2-2-2-2-|-4-4-4-4-4-4-4-4-|E|-----------------|-2-2-2-2-2-2-2-2-|
Guitar 3:
e|--------------|----------|--------------|-----------|B|--------------|----------|--------------|-----------|G|-11-9-8-14--6-|----------|-11-9-8-14--6-|-----------|D|--------------|-6-8-11-8-|--------------|-6-8-11-8--|A|--------------|----------|--------------|-----------|E|--------------|----------|--------------|-----------|
Pre-Chorus: 0:40 - 0:53 Guitar 1:
e|------------------|-----------------|-----------------|-----------------|B|------------------|-----------------|-----------------|-----------------|G|------------------|-----------------|-----------------|-----------------|D|--4-4-4-4-4-4-4-4-|-4-4-4-4-4-4-4-4-|-----------------|-----------------|A|--2-2-2-2-2-2-2-2-|-2-2-2-2-2-2-2-2-|-4-4-4-4-4-4-4-4-|-4-4-4-4-4-4-4-4-|E|------------------|-----------------|-2-2-2-2-2-2-2-2-|-2-2-2-2-2-2-2-2-|PM . . . . . . . . . . . . . . . . . . . . . . . . . . . . . . . .
Guitar 2:
e|------------------|-----------------|-----------------|---------------|B|------------------|-----------------|-----------------|---------------|G|------------------|--------5-8/4~---|-----------------|--------5/8-4~-|D|------------------|-----------------|-----------------|---------------|A|------------------|-----------------|-----------------|---------------|E|------------------|-----------------|-----------------|---------------|
Guitar 1:
e|------------------|-----------------|-----------------|-----------------|B|------------------|-----------------|-----------------|-----------------|G|------------------|-----------------|-----------------|-----------------|D|--4-4-4-4-4-4-4-4-|-4-4-4-4-4-4-4-4-|-----------------|-----------------|A|--2-2-2-2-2-2-2-2-|-2-2-2-2-2-2-2-2-|-4-4-4-4-4-4-4-4-|-4-4-4-4-4-4-4-4-|E|------------------|-----------------|-2-2-2-2-2-2-2-2-|-2-2-2-2-2-2-2-2-|PM . . . . . . . . . . . . . . . . . . . . . . . . . . . . . . . .
Guitar 2:
e|------------------|-----------------|-----------------|-----------------|B|------------------|-----------------|-----------------|-----------------|G|------------------|--------5-8/4~---|-----------------|-4-4-4-4-4-4-4-4-|D|------------------|-----------------|-----------------|-----------------|A|------------------|-----------------|-----------------|-----------------|E|------------------|-----------------|-----------------|-----------------|
Chorus: 0:54 - 1:17 Guitar 1 and 2:
e||------------------|------------------| |B||------------------|------------------| |G||o-----------------|-8-8-8-8-8-4/6-6-o|X8|D||o--4-4-4-4--8-8-8-|-8-8-8-8-8-4/6-6-o| |A||---4-4-4-4--8-8-8-|-6-6-6-6-6-2/4-4--| |E||---2-2-2-2--6-6-6-|------------------| |
(Continued)
e|------------------|-----------------|B|------------------|-----------------|G|--4-4-4-4-4-4-4-4-|-----------------|D|--4-4-4-4-4-4-4-4-|-4-4-4-4-4-4-4-4-|A|--2-2-2-2-2-2-2-2-|-4-4-4-4-4-4-4-4-|E|------------------|-2-2-2-2-2-2-2-2-|
Guitar 3:
e|------------------|---------------|B|------------------|---------------|G|-12-15-12--6-8-9--|-4-8-6---------|D|------------------|--------4-6-8--|A|------------------|---------------|E|------------------|---------------|
(Continued)
e|------------|---------------|B|-11---------|--11-----------|G|------11----|--------11-----|D|------------|---------------|A|------------|---------------|E|------------|---------------|
Repeat Verse: 1:18 - 1:42 Except Guitar Three: (play this and then continue with verse 1 part)
e|----------------------------|-------------------------|B|----------------------------|-------------------------|G|-11-11-11-11-11-11-11-11-11-|-14-14-14-14-14-14-14-14-|D|----------------------------|-------------------------|A|----------------------------|-------------------------|E|----------------------------|-------------------------|
Repeat Pre-Chorus: 1:43 - 1:56 Chorus: 1:57 - 2:17 Repeat Chorus Guitar Solo: 2:17 - 2:30 Guitar 1: Play 2nd half of verse Guitar 2:
e|---------------|--------------------|--------------------|-------------|B|---------------|--------------------|--------------------|-------------|G|-9-11-9-8-8--6-|-3--1-1----9-11-9-8-|-9-12-15--14-12-11--|-12/9-9/11\9-|D|---------------|--------4-----------|--------------------|-------------|A|---------------|--------------------|--------------------|-------------|E|---------------|--------------------|--------------------|-------------|
e|--------------------------------------------------------|B|--------------------------------------------------------|G|-9-11-11-14-14-12-11-9-8-8/6-6/3-3/1-1-----1/12-11-6/8~-|D|---------------------------------------4-4--------------|A|--------------------------------------------------------|E|--------------------------------------------------------|
Bridge: 2:31 - 2:57 Guitar 3:
e|--------------------------------|B|--------------------------------|G|-11--11--11--11--10--10--10--10-|D|--------------------------------|A|--------------------------------|E|--------------------------------|
Out-Chorus: 2:59 - 3:16 13. Even If It Kills Me (intro)
|--------------------------|--------------------------||--------1-----------1-----|--------1-----------1-----||--------------------------|--------------------------||-----3-----3-----3-----3--|-----3-----3-----3-----3--||--0-----------0-----------|--0-----------0-----------||--------------------------|--------------------------|
|--------------------------|--------------------------||--------1-----------1-----|--------1-----------1-----||--------------------------|--------------------------||-----3-----3-----3-----3--|-----3-----3-----3-----3--||--0-----------0-----------|--0-----------0-----------||--------------------------|--------------------------|
|--------------------------|--------------------------||--------1-----------5-----|--------6-----------6-----||--------------------------|--------------------------||-----3-----3-----3-----3--|-----5-----5-----5-----5--||--0-----------5-----------|--6-----------6-----------||--------------------------|--------------------------|
|--------------------------|--------------------------||--------1-----------1-----|--------1-----------1-----||--------------------------|--------------------------||-----3-----3-----3-----3--|-----3-----3-----3-----3--||--1-----------1-----------|--1-----------1-----------||--------------------------|--------------------------|
|--------------------------|--------------------------||--------1-----------5-----|--------6-----------6-----||--------------------------|--------------------------||-----3-----3-----3-----3--|-----5-----5-----5-----5--||--0-----------5-----------|--6-----------6-----------||--------------------------|--------------------------|
|--------------------------|--------------------------||--------6-----------6-----|--------1-----------1-----||--------------------------|--------------------------||-----5-----5-----5-----5--|-----3-----3-----3-----3--||--6-----------6-----------|--1-----------1-----------||--------------------------|--------------------------|
|--------------------------|--------------------------||--------1-----------5-----|--------6-----------6-----||--------------------------|--------------------------||-----3-----3-----3-----3--|-----5-----5-----5-----5--||--0-----------5-----------|--6-----------6-----------||--------------------------|--------------------------|
|--------------------------|--------------------------||--------1-----------1-----|--------1-----------1-----||--------------------------|--------------------------||-----3-----3-----3-----3--|-----3-----3-----3-----3--||--1-----------1-----------|--1-----------1-----------||--------------------------|--------------------------|
|--------------------------|--------------------------||--------1-----------5-----|--------6-----------6-----||--------------------------|--------------------------||-----3-----3-----3-----3--|-----5-----5-----5-----5--||--0-----------5-----------|--6-----------6-----------||--------------------------|--------------------------|
|--------------------------|--------------------------||--------6-----------6-----|--------1-----------1-----||--------------------------|--------------------------||-----5-----5-----5-----5--|-----3-----3-----3-----3--||--6-----------6-----------|--1-----------1-----------||--------------------------|--------------------------|
|--------------------------|--------------------------||--------1-----------5-----|--------6-----------6-----||--------------------------|--------------------------||-----3-----3-----3-----3--|-----5-----5-----5-----5--||--0-----------5-----------|--6-----------6-----------||--------------------------|--------------------------|
|--------------------------|--------------------------||--------1-----------1-----|--------1-----------1-----||--------------------------|--------------------------||-----3-----3-----3-----3--|-----3-----3-----3-----3--||--1-----------1-----------|--1-----------1-----------||--------------------------|--------------------------|
|--------------------------|--------------------------||--------1-----------5-----|--------6-----------6-----||--------------------------|--------------------------||-----3-----3-----3-----3--|-----5-----5-----5-----5--||--0-----------5-----------|--6-----------6-----------||--------------------------|--------------------------|
|--------------------------|--------------------------||--------6-----------6-----|--------1-----------1-----||--------------------------|--------------------------||-----5-----5-----5-----5--|-----3-----3-----3-----3--||--6-----------6-----------|--1-----------1-----------||--------------------------|--------------------------|
Tap to rate this tab
 
# A B C D E F G H I J K L M N O P Q R S T U V W X Y Z