Motley Crue - Shout At The Devil tab

Band - Motley Crue
Album - Shout at the Devil

1. IN THE BEGINNING
2. SHOUT AT THE DEVIL
3. LOOKS THAT KILL
4. BASTARD
5. GOD BLESS THE CHILDREN OF THE BEAST
6. HELTER SKELTER
7. RED HOT
8. TOO YOUNG TO FALL IN LOVE
9. KNOCK 'EM DEAD KID
10. TEN SECONDS TO LOVE
11. DANGER
12. SHOUT AT THE DEVIL (DEMO)
13. LOOKS THAT KILL (DEMO)
14. HOTTER THAN HELL
15. I WILL SURVIVE
16. TOO YOUNG TO FALL IN LOVE (DEMO)


1. IN THE BEGINNING
its only vocals and its hard to understand the guy


2. SHOUT AT THE DEVIL
drop D tuning- DGCFAD

make sure to play in drop D, or else it wont sound the same, and then
you'll be emailing me corrections that only sound good in standard tuning.

/ -slide up
\- slide down
h -hammer on
^ -use bar

intro- x2, hold then slide-------------------|-------------------|-----5/-------7/---|-----5/-------7/---|-0-0------0-0------|-------------------|
-------------------------------------|-------------------------------------|-----5-------7-------5-----------7-5-|-----5-------7-------5------5--------|-0-0-----0-0----0-0-----5-7---7------|-------------------------------------|
-------------------------------------|-------------------------------------|-----5--------7------5-----------7-5-|-----5--------7------5------5------5-|-0-0----0-0-----0-0-----5-7---7------|-------------------------------------|
intro lead-----------------------------|-11~--10~--8~---11~--13~--8~-|-----------------------------|-----------------------------|-----------------------------|-----------------------------|
gtr 2------------------------------------|------------------------------------|-----5------7-------5-----------7-5-|-----5------7-------5------5------5-|-0-0----0-0-----0-0----5-7---7------|------------------------------------|
-------------------------------------|-------------------------------------|-----5------7-------5--------------5-|-----5------7-------5------5-------5-|-0-0-----0-0----0-0----5-7---5-0-3---|-------------------------------------|
verse -x4 on 4th play this----------------|----------------------|----------------|----------------------|-7-5-2--5-7-5-2-|-7-5-2--5-7-2-7-7-5-2-|-7-5-2--5-7-5-2-|-7-5-2--5-7-2-7-7-5-2-|-5-3-0--3-5-3-0-|-5-3-0--3-5-0-5-5-3-0-|----------------|----------------------|
chorus-------------------------------------|-------------------------------------|-----5------7-------5------------7-5-|-----5------7-------5-------5------5-|-0-0----0-0-----0-0-----5-7---7------|-------------------------------------|
-------------------------------------|-------------------------------------|-----5-------7------5------------7-5-|-----5-------7------5-------5--------|-0-0-----0-0----0-0-----5-7---7------|-------------------------------------|
verse -x4----------------|----------------|-7-5-2--5-7-5-2-|-7-5-2--5-7-5-2-|-5-3-0--3-5-3-0-|----------------|
on 4th play this----------------------------------|------------------------------3---|-7-5-2--5-7-2-2-5-5---5-------0---|-7-5-2--5-7-2-2-5-5---5-----------|-5-3-0--3-5-0-0-3-3-3---3-2-2---2-|----------------------------------|
chorus-------------------------------------|-------------------------------------|-----5------7-------5------------7-5-|-----5------7-------5-------5------5-|-0-0----0-0-----0-0-----5-7---7------|-------------------------------------|
------------------------------------|------------------------------------|-----5------7-------5-----------7-5-|-----5------7-------5-------5-------|-0-0----0-0-----0-0-----5-7---7-----|------------------------------------|
sologtr 2 under the lead------------------------------|------------------------------|------------------------------|-2-2---2-2---2-2--------------|-2-2---2-2---2-2--------0-2-3-|-0-0---0-0---0-0--0-2-3-------|
------------------------------|------------------------------|------------------------------|-2-2---2-2---2-2--------------|-2-2---2-2---2-2----------0-3-|-0-0---0-0---0-0--0-2-3-0-----|
gtr 1 ride the bar in both directions------------|----------------|------------|-8~-7~-5~---|----------------|------------|------------12h15h12h15h12h15h-----12^15^-|------------------------------------------|------------------------------------------|------------------------------------------|
gtr 2--------------------------------|--------------------------------|--------------------------------|-2-2---2-2---2-2----------------|-2-2---2-2---2-2----------0-2-3-|-0-0---0-0---0-0---0-2-3--------|
gtr 1------------------------------------------|-8^---10^---------------------------------|----------12^-2----2^-2^-2^-2^-2^-2^-2-6/-|-------------------------------------2-6/-|-------------------------------------0-4/-|------------------------------------------|
gtr 2-----------------|-----------------|-----------------|-2-2---2-2---2-2-|-2-2---2-2---2-2-|-0-0---0-0---0-0-|
verse-x4(slide from end of solo, into the regular verse)-|--------------|-|--------------|-7/5-2--5-7-5-2-|-7/5-2--5-7-5-2-|-5/3-0--3-5-3-0-|----------------|
on 4th play this----------------------------------|------------------------------3---|-7-5-2--5-7-2-2-5-5---5-------0---|-7-5-2--5-7-2-2-5-5---5-----------|-5-3-0--3-5-0-0-3-3-3---3-2-2---2-|----------------------------------|
-------------------------------------|-------------------------------------|-----5------7-------5------------7-5-|-----5------7-------5-------5------5-|-0-0----0-0-----0-0-----5-7---7------|-------------------------------------|
--------------------------------------|--------------------------------------|-----5-------7-------5-----------7-5^-|-----5-------7-------5-------5--------|-0-0-----0-0-----0-0-----5-7---7------|--------------------------------------|
--break--
------------------------------------------------|------------------------------------------------|----------7-5~------5-----7-----5-----------7-5-|------5-------------5-----7-----5------5------5-|-\5-7---7-------0-0---0-0---0-0---5-7---7-------|------------------------------------------------|
---------------------------------------|---------------------------------------|-----5-------7-------5------------7-5^-|-----5-------7-------5-------5---------|-0-0-----0-0-----0-0-----5-7---7-------|---------------------------------------|
outro- repeat and fade after 3 times--------------------------------|--------------------------------|--------4/5------------6/7------|--------4/5------------6/7------|-0-0-0--2/3--0-0-0-0-0-4/5--0-0-|--------------------------------|
------------------------------|------------------------------|--------4/5---------------7-5-|--------4/5----------5------5-|-0-0-0--2/3--0-0-5-7---7------|------------------------------|
lead over outro -x2, fade halfway through on the 2nd time-----------------------------|-11~--10~--8~---11~--13~--8~-|-----------------------------|-----------------------------|-----------------------------|-----------------------------|
3. LOOKS THAT KILLMain RiffD|-----------------|-----------------|-----------------|-----------------|A|-----------------|-----------------|-----------------|-----------------|F|-----9-----9-----|-7-----7-----7\6-|-----9-----9-----|-7-----7-----7\6-|C|-----7-----7-----|-5-----5-----5\4-|-----7-----7-----|-5-----5-----5\4-|G|-0-0---0-0---0-0-|---0-0---0-0-----|-0-0---0-0---0-0-|---0-0---0-0-----|D|-----------------|-----------------|-----------------|-----------------|
D|-----------------|-----------------|-----------------|-----------------|A|-----------------|-----------------|-----------------|-----------------|F|-----9-----9-----|-7-----7-----7\6-|-----9-----9-----|-7-----7-----7\6-|C|-----7-----7-----|-5-----5-----5\4-|-----7-----7-----|-5-----5-----5\4-|G|-0-0---0-0---0-0-|---0-0---0-0-----|-0-0---0-0---0-0-|---0-0---0-0-----|D|-----------------|-----------------|-----------------|-----------------|
|
| vib.D|-----------------|-----------------|-22b(24)~~~~~~~~~|-(24)~~~~~~~~~~~~|A|-----------------|-----------------|-----------------|-----------------|F|-----------------|-----------------|-----------------|-----------------|C|-2---------------|(2)--------------|-----------------|-----------------|G|-0---------------|(0)--------------|-----------------|-----------------|D|-----------------|-----------------|-----------------|-----------------|
w/barBefore the Chorus -.5 -.5 -.5 -.5 -.5 -.5 -.5D|-----------------|-----------------|---------------------------------|A|-----------------|-----------------|---\/--\/--\/--|-\/--\/--\/--\/--|F|-----9-----9-----|-7-----7-----7\6-|-5-(5)-(5)-(5)-|-(5)-(5)-(5)-(5)-|C|-----7-----7-----|-5-----5-----5\4-|-3-(3)-(3)-(3)-|-(3)-(3)-(3)-(3)-|G|-0-0---0-0---0-0-|---0-0---0-0-----|---------------|-----------------|D|-----------------|-----------------|---------------|-----------------|
ChorusD|-------------|--------|-----------|-----------|-------------------|A|-1-1--1-1----|----5-6-|-(6)---6-7-|-(7)---7-8-|-(8)-6-6-6-6-6-6---|F|-0-0--0-0----|----5-5-|-(5)---5-5-|-(5)---5-5-|-(5)-5-5-5-5-5-5---|C|-3-3--3-3--2-|----2-3-|-(3)---3-4-|-(4)---4-5-|-(5)-3-3-3-3-3-3-0-|G|-------------|-0------|-----0-----|-----0-----|-------------------|D|-------------|--------|-----------|-----------|-------------------|
D|---------|-----------|-----------|-------------------|A|-----5-6-|-(6)---6-7-|-(7)---7-8-|-(8)-6-6-6-6-6-6---|F|-----5-5-|-(5)---5-5-|-(5)---5-5-|-(5)-5-5-5-5-5-5---|C|-2---2-3-|-(3)---3-4-|-(4)---4-5-|-(5)-3-3-3-3-3-3-0-|G|---0-----|-----0-----|-----0-----|-------------------|D|---------|-----------|-----------|-------------------|
BridgeD|-----------------|---------------|-------------|A|-10--9----13--12-|-8--7----10--9-|-6--5---8--7-|F|-9---9--12----12-|-8--7--10----9-|-5--5--7---7-|C|-7---6--12----9--|-5--4--10----6-|-3--2--7---4-|G|--------10-------|-------8-------|-------5-----|D|-----------------|---------------|-------------|
SoloD|-----------------|------------------------|A|-----------------|------------------------|F|-7-7-7-7-7-7-7-7-|-7--7--7--7--7--7--7--7-|C|-5-5-5-5-5-5-5-5-|-5--5--5--5--5--5--5--5-|G|-----------------|------------------------|D|-----------------|------------------------|
| |
D|-----------------|------------------------|A|-----------------|-----6-5-8-5--8(10)r8p5-|F|-----------------|-5-4--------------------|C|-------------6-7-|------------------------|G|---------8-7-----|------------------------|D|-----------------|------------------------|
D|-----------------------------------------|---5------------------------|A|-8p5h8p5-5h8p5h8p5h8p5h8p5h8p5h8p5-8b(10)|(8)--8p5---5----------------|F|-----------------------------------------|---------7---7-5-7(9)r(7)p5-|C|-----------------------------------------|----------------------------|G|-----------------------------------------|----------------------------|D|-----------------------------------------|----------------------------|
p.h. p.h. p.h. p.h.D|------------------------------|-----------|------------------|A|------------------------------|-----------|------------------|F|-7(9)r(7)p5-7(9)r(7)p5--------|-----------|-8-7-8-7-5---7b(9)|C|-----------------------7------|-----------|-----------7------|G|-------------------------5b(7)|(5)-5--5p4-|------------------|D|------------------------------|-----------|------------------|
D|------------------------------|-----------------------|-------------|----|A|------------------------------|-----------------------|-6-----------|(6)-|F|----------9---------9---------|-7--------7--------7\6-|-5-----------|(5)-|C|----------7---------7---------|-5--------5--------5\4-|-3-----------|(3)-|G|---0---0-----0---0-----0---0--|----0--0-----0--0------|-------------|----|D|------------------------------|-----------------------|-------------|----|
| |
D|----5-------------------------|-----------------------|-------------|----|A|------8p5---5-----------------|-----------------------|-------------|----|F|(7)-------7---8-7-5-7-7-5-----|-----------------------|-------------|----|C|--------------------------7-5-|-5---------------------|-------------|----|G|------------------------------|---7-6-5\3---------5---|gradual-bend-|----|C|------------------------------|-----------5p3-5-5---5-|-5b(8)-------|(5)-|
4. BASTARD Legend: <> = artificial harmonics () = natural harmonics ^ = pull-off & hammer-on /\ = slide ~~~ = vibrato ... = palm mute
Intro:D-|------------------------(5)-|-----------------------|----------------------|A-|--------------------(5)-----|-----------------------|----------------------|F-|----------------------------|*-2----------2---------|-2----------2---------|C-|-------(5)-----(5)----------|*-0--3^0-0-2-0---------|-0--3^0-0-2-0---------|G-|-12\-------(5)--------------|-----------------3-2-3-|---------------3-2----|D-|----------------------------|-----------------------|-------------------3--|
____________________________________________________________________ | 1. | 2.D-|-----------------------|---------------------|------------------------|A-|-----------------------|---------------------|------------------------|F-|-----------------------|--------------------*|------------------------|C-|-2----------2----------|-2----------2-------*|-2---4--5--4--5--4--2---|G-|-0--3^0-0-2-0---3-2----|-0--3^0-0-2-0--3-2-3-|-0---2--3--2--3--2--0---|D-|--------------------3--|---------------------|------------------------|
Here the Gtr.1 does this, while the Gtr.2 plays the2. part.D-|--------------------------||A-|--------------------------||F-|-9-11-12-11-12-11-12-11-9-||C-|--------------------------||G-|--------------------------||D-|--------------------------||
____________________ ____________________________ Verse: | 1. | 2.
D-|----------|--------------------|----------------------------||A-|----------|--------------------|----------------------------||F-|*---------|-------------10--9-*|----------------------------||C-|*-7\------|--5-6-7\-----10--9-*|-5-6-7\----2-3-0-2----------||G-|--7\------|--5-6-7\-----8---7--|-5-6-7\------------3-5-2-3--||D-|--5\------|--3-4-5\------------|-3-4-5\---------------------||
Chorus:D-|-----------------------------|---------------------|A-|-----------------------------|---------------------|F-|*---------------------------*|*------2----------2-*|C-|*--2--4-5---4-5---4-5--4--2-*|*------0--3-0-0-2-0-*|G-|---0--2-3---2-3---2-3--2--0--|-3-2-3---------------|D-|-----------------------------|---------------------|
D-|---------------------------------||A-|---------------------------------||F-|---------------------------------||C-|-------2----4-5--4-5--4-5--4--2--||G-|-3-2---0----2-3--2-3--2-3--2--0--||D-|-----3---------------------------||
Bridge: Div Gtr.1D-|-----------------------|---------------|--12-13-------12-----------------|A-|--10----10--12-13--12--|-12-13-14-13---|--12-13-10_15-12--13-10_15-12-13-|F-|*-9-----9---11-12--11--|-11-12-14-12---|------------------12-------11-12*|C-|*----------------------|---------------|--------------------------------*|G-|-----------------------|---------------|---------------------------------|D-|-----------------------|---------------|---------------------------------| Gtr.2
Solo: +-D-|---------------------|----------------------------|---------------------|A-|---------------------|----------------------------|---------------------|F-|-------<12>---^10----|--9-10-12--9-10-12--9-10-12-|-9-10-10\9--9\7--7\5-|C-|------------------12-|----------------------------|---------------------|G-|---------------------|----------------------------|---------------------|D-|---------------------|----------------------------|---------------------|
1+-D-|------------------------|------------------------------7-8-10-7-8-10----|A-|------------------------|-------------------------8-10------------------|F-|-5----5--7-<7>---^5--7--|------------------7-9-10-----------------------|C-|---7--------------------|-----------7-9-10------------------------------|G-|------------------------|----7-8-10-------------------------------------|D-|------------------------|-10--------------------------------------------|
D-|-8-7----7------|-12-13-15--12-13-15--12-13-15--12-13-15-/17-17-17-17----|A-|-----10---10-8-|--------------------------------------------------------|F-|---------------|--------------------------------------------------------|C-|---------------|--------------------------------------------------------|G-|---------------|--------------------------------------------------------|D-|---------------|--------------------------------------------------------|
End:D-|------------------------------------------------------------------------|A-|------------------------------------------------------------------------|F-|-------------Repeat a lot-----------------------------------------------|C-|--7--7-7-7-7------------------------------------------------2-2-2-2-2-2-|G-|--5--5-5-5-5--------3-3-3-3---5-5-5-5--7-7--5-5--3-3--2-2---0-0-0-0-0-0-|D-|------------------------------------------------------------------------|
"How To Play It" [Intro] [Verse] [Chorus] [Verse] [Chorus, The first compass] [Bridge] [Solo] [Chorus, first compass 2 times, compasses 2 & 3, 2 times] [End] 5. GOD BLESS THE CHILDREN OF THE BEAST /-slide down h- hammer on p- pull off ^- let ring play this one in standard tuning gtr 1 plays continuosly
gtr 1-------------0-----------------------0------------------------0---------------|-------0--------0-----5--------0--------0-----5---------0--------0-----0------|----5-----5--------5--------5-----5--------5---------4-----4--------4---------|-7-----------------------7------------------------5---------------------------|------------------------------------------------------------------------------|------------------------------------------------------------------------------|
-------------0------------------------0-----------------------0----------------|-------0--------0-----0---------0--------0-----0--------0--------0-----0-------|----4-----4--------4---------2-----2--------2--------2-----2--------2----------|-5------------------------3-----------------------3----------------------------|-------------------------------------------------------------------------------|-------------------------------------------------------------------------------|
on the last bit finish with Am when they say god bless...-------------0------------------------------------|---|-------0--------0-----0--------0------------0-----|-1-|----1-----1--------1--------1-----1/-----4-----4--|-2-|-2-----------------------2------------6-----------|-2-|--------------------------------------------------|-0-|--------------------------------------------------|---|
gtr 2--------------------------------------------------------------------------------|--------------------------------------------------------------------------------|--5-------5-7-4-5---4----------------5-7-4-5---4----------------5-7-4-5---4-----|------------------7---5-7------5-------------7---5-7-------3------------7---5-7-|--------------------------------------------------------------------------------|--------------------------------------------------------------------------------|
--------------------------------------------------------------------|-5----5-6---5----------------5-6---5----------------5-6---5---------|----------7---5-7-4-5-----4------7---5-7-4-5-----2------7---5-7-4-5-|--------------------------------------------------------------------|--------------------------------------------------------------------|--------------------------------------------------------------------|
-------------------------------------------------------------------------------|-----------------------------------------------------------15------17-15---18--|--------------5-4---10-9---12-10----14-12---16-14---17-16------17--------------|-2-3-2---6-3-------------------------------------------------------------------|-------------------------------------------------------------------------------|-------------------------------------------------------------------------------|
----------------------------------------------------------15-17----|------------6-5--10-9--12-10---13-12--15-13--17-15--18-17-------18-|-1-2-1--4-2--------------------------------------------------------|-------------------------------------------------------------------|-------------------------------------------------------------------|-------------------------------------------------------------------|
----------------------------------------------------|-17h18p17h18p17h18p17h18-17h18p17h18p17h18p17h18----|----------------------------------------------------|----------------------------------------------------|----------------------------------------------------|----------------------------------------------------|
------------------------------------------------|----15-17-15-------------------15-17-15--13--12-|-17----------17-16----------17------------------|--------------------15--------------------------|------------------------------------------------|------------------------------------------------|
--15h17p15h17p15h17p15h17--15h17p15h17p15h17p15h17---|-----------------------------------------------------|-----------------------------------------------------|-----------------------------------------------------|-----------------------------------------------------|-----------------------------------------------------|
--------15------------------------15-13--12--10-|--17-18----18--17--15-------17-18---------------|-----------------------14-----------------------|------------------------------------------------|------------------------------------------------|------------------------------------------------|
-----------------------------------12^-------------12--12------------12/-17^-|------------12----13------------13-----------9--12--------13------13---------|-----9--13-----------14------14------------9-----------------14--------------|--9---------------------14---------------------------------------------------|-----------------------------------------------------------------------------|-----------------------------------------------------------------------------|
----------------------------------------------------10-----------10/-15^-|--12-----------12--15^-----10-------------10--13^------12-----12---------|-----12------12---------------10-------10-----------------12-------------|--------12-----------------------10--------------------------------------|-------------------------------------------------------------------------|-------------------------------------------------------------------------|
--8------------8/--13^-|----10------10---------|-------10--------------|-----------------------|-----------------------|-----------------------|
-----------------------------------12^-----12---------12-------12------|-12--------12-------13----------13------------12---------12-------13---|---13--------13--------14-----14------------------------------------14-|--------------------------14----------------------14--------14---------|-------14-------14-----------------------------------------------------|-----------------------------------------------------------------------|
-----12/--17^----------------------------------------------------|--13------------12-------------12--15^----10------------10---13^-|-------------------12-------12---------------10------10----------|----------------------12------------------------10---------------|-----------------------------------------------------------------|-----------------------------------------------------------------|
--10-------------10/--15^-----8-------------8/--13^-|-----12------12-----------------10-------10---------|--------12-------------------------10---------------|----------------------------------------------------|----------------------------------------------------|----------------------------------------------------|
god bless the childeren of the beast-------------------------------------------------------|--12-----------12--------------------------------------|-------13---------13-----------13-------13-------------|-----------14--------14-14--------14-------14------14^-|-------------------------------------14--------14------|-------------------------------------------------------|
6.HELTER SKELTER b- bend \- slide up /- slide down nh- natural harmonic PM- palm mute x- palm mute h- hammer on p- pull off (#)- fret # in parenthesis is a ghost note ~- let ring ^- use bar
intro--------------------------------------------------------------------|--7-7-7-7-7-7-7-7-7-7-7-7-7-7-7-7---7-7-7-7-7-7-7-7-7-7-7-7-7-7-7-7-|--9-9-9-9-9-9-9-9-9-9-9-9-9-9-9-9---9-9-9-9-9-9-9-9-9-9-9-9-9-9-9-9-|--------------------------------------------------------------------|--------------------------------------------------------------------|--------------------------------------------------------------------|
--------------------------------------------------------------------|--7-7-7-7-7-7-7-7-7-7-7-7-7-7-7-7---7-7-7-7-7-7-7-7-7-7-7-7-7-7-7-7-|--9-9-9-9-9-9-9-9-9-9-9-9-9-9-9-9---8-8-8-8-8-8-8-8-8-8-8-8-8-8-8-8-|--------------------------------------------------------------------|--------------------------------------------------------------------|--------------------------------------------------------------------|
nh------------------------------------------------------------------------|--7-7-7-7-7-7-7-7-7-7-7-7-7-7-7-7\--------------------------------------|--7-7-7-7-7-7-7-7-7-7-7-7-7-7-7-7\---------------------4b---------------|------------------------------------2----4-2----4----------0-4------4-4-|------------------------------------0----0-0----0--4---------4------4-4-|---------------------------------------------------2---------2------2-2-|
verse PM--------------------------|-----------------------------|-----------------------------|--------------------------2--|-------4-4-4-4-4-4-4-4-4--2--|-------4-4-4-4-4-4-4-4-4--0--|--0h2--2-2-2-2-2-2-2-2-2-----|
PM-----------------------|--------------------------|--------------------------|--------------------------|-------4-4-4-4-4-4-4-4-4--|-------4-4-4-4-4-4-4-4-4--|--0h2--2-2-2-2-2-2-2-2-2--|
pre-chorus-----------------------------------------|-----------------------------------------|-----------------------------------------|-----------------------------------------|--7-7-9-9-7-7-9-9--7-7-9-9--7-7-7-7/9--9-|--5-5-5-5-5-5-5-5--5-5-5-5--5-5-5-5/7--7-|
gtr 2--------------------------------------|--------------------------------------|--------------------------------------|--7-----7-----7-7--7---7-7-7---7/9--9-|--7-----7-----7-7--7---7-7-7---7/9--9-|--5-----5-----5-5--5---5-5-5---5/7--7-|
gtr 1---------------------|---------------------|-----4b-^-^p2--------|---------------4--0--|--4------------4--0--|--2------------2-----|
chorus PM----| PM-----------------------------------------------------|--------------------------------------------------------0-0-0-0-0-0-0-0-0-0--------|------------------------------------------------------0-7-7-7-7-7-7-7-7-7-7b-------|-----------2-1---------------------------------------------------------------x\----|--4-4-6-6-------4-2-1----------------2-1-------------------------------------x\-0--|--2-2-2-2--------------4-2--4-4-6-6-------4-2-1---------------------------------0--|----------------------------2-2-2-2--------------4-2-------------------------------|
verse PM--------------------------|-----------------------------|-----------------------------|--------------------------2--|-------4-4-4-4-4-4-4-4-4--2--|-------4-4-4-4-4-4-4-4-4--0--|--0h2--2-2-2-2-2-2-2-2-2-----|
PM-----------------------|--------------------------|--------------------------|--------------------------|-------4-4-4-4-4-4-4-4-4--|-------4-4-4-4-4-4-4-4-4--|--0h2--2-2-2-2-2-2-2-2-2--|
pre-chorus-----------------------------------------|-----------------------------------------|-----------------------------------------|-----------------------------------------|--7-7-9-9-7-7-9-9--7-7-9-9--7-7-7-7/9--9-|--5-5-5-5-5-5-5-5--5-5-5-5--5-5-5-5/7--7-|
gtr 2--------------------------------------|--------------------------------------|--------------------------------------|--7-----7-----7-7--7---7-7-7---7/9--9-|--7-----7-----7-7--7---7-7-7---7/9--9-|--5-----5-----5-5--5---5-5-5---5/7--7-|
gtr 1---------------------|---------------------|-----4b-^-^p2--------|---------------4--0--|--4------------4--0--|--2------------2-----|
chorus PM-----| PM---| PM------------------------|--------------------------------------------------------------------------------|--------------------------------------------------------------------------------|-----------2-1--------------------------------------------------2-1-------------|--4-4-6-6-------4-2-1----------------2-1---------------4-4-6-6------4-2-1-------|--2-2-2-2--------------4-2--4-4-6-6-------4-2-1--------2-2-2-2-------------4-2--|----------------------------2-2-2-2--------------4-2----------------------------|
---0-0-0-0-0-0-0-0-0-0-----------------------------|-0-7-7-7-7-7-7-7-7-7-7b----------------------------|------------------------x\-------------------------|------------------------x\----4---------------4----|------------------------------4---------------4----|------------------------------2---------------2----|
sologtr 1 PM----------------| PM PM-------------| PM-----------------------------------------------------|-----------------------------------------------------|--4-4-4-4-4-4-4-4-4-4-2------------------------------|--4-4-4-4-4-4-4-4-4-4-2---0h4-------4-----4-------2--|--2-2-2-2-2-2-2-2-2-2-0---0h4---4-4-4-4-4-4-4-4-4-2--|--------------------------0h2---2-2-2-2-2-2-2-2-2-0--|
gtr 2 bend 4 1/2 bend 1 1/2-------------------------------------------------------------------------|--7(10)^^^^^^------------------(7)(10)-----------------(10)--------(7)b\-|-------------------------------------------------------------------------|-------------------------------------------------------------------------|-------------------------------------------------------------------------|-------------------------------------------------------------------------|
gtr 1 PM PM PM PM----------------------------------------|--------------------------------------------------------------------14-14-14---14---|----------------------------------------------------------------/17-------17b--17b--|----------4-----4-4-4-4-2-----------------------------------------------------------|------4-4-4-4-4-4-4-4-4-2-------------4---------------------------------------------|--0h2-2-2-2-2-2-2-2-2-2-0-------4--4--4--4--4--4--4--4---4-2p0----------------------|---------------------------0h2--2--2--2--2--2--2--2--2---2-0------------------------|
--14-16-17-17-14-16-17-17-14-17-18-18-14-17-18-18-19-21-21-18-19-21/24b-|------------------------------------------------------------------------|------------------------------------------------------------------------|------------------------------------------------------------------------|------------------------------------------------------------------------|------------------------------------------------------------------------|
PM PM----------------------------------------------------------|--------------------------7-7-7-7-7-7-7-7-7-7-7-7-7-7-7-7-|--4-----4-----4-4-4-4-2---9-9-9-9-9-9-9-9-9-9-9-9-9-9-9-9-|--4-4-4-4-4-4-4-4-4-4-2-----------------------------------|--2-2-2-2-2-2-2-2-2-2-0-----------------------------------|----------------------------------------------------------|
dont dive, let the pitch return to standard, use echo on the ghost notes bend 1 1/2 4 1/2--------------------------|--14(17)^^^---------(17)--|--------------------------|--------------------------|--------------------------|--------------------------|
--------------------------------------------------------------------|--7-7-7-7-7-7-7-7-7-7-7-7-7-7-7-7---7-7-7-7-7-7-7-7-7-7-7-7-7-7-7-7-|--9-9-9-9-9-9-9-9-9-9-9-9-9-9-9-9---8-8-8-8-8-8-8-8-8-8-8-8-8-8-8-8-|--------------------------------------------------------------------|--------------------------------------------------------------------|--------------------------------------------------------------------|
---------------------------------------------------------------|--7-7-7-7-7-7-7-7-7-7-7-7-7-7-7-7\-----------------------------|--7-7-7-7-7-7-7-7-7-7-7-7-7-7-7-7\---------------------4b------|------------------------------------2----4-2----2----------0-4-|------------------------------------0----0-0----0--4---------4-|---------------------------------------------------2---------2-|
verse PM--------------------------|-----------------------------|-----------------------------|--------------------------2--|-------4-4-4-4-4-4-4-4-4--2--|-------4-4-4-4-4-4-4-4-4--0--|--0h2--2-2-2-2-2-2-2-2-2-----|
PM-----------------------|--------------------------|--------------------------|--------------------------|-------4-4-4-4-4-4-4-4-4--|-------4-4-4-4-4-4-4-4-4--|--0h2--2-2-2-2-2-2-2-2-2--|
pre-chorus-----------------------------------------|-----------------------------------------|-----------------------------------------|-----------------------------------------|--7-7-9-9-7-7-9-9--7-7-9-9--7-7-7-7/9--9-|--5-5-5-5-5-5-5-5--5-5-5-5--5-5-5-5/7--7-|
gtr 2--------------------------------------|--------------------------------------|--------------------------------------|--7-----7-----7-7--7---7-7-7---7/9--9-|--7-----7-----7-7--7---7-7-7---7/9--9-|--5-----5-----5-5--5---5-5-5---5/7--7-|
gtr 1---------------------|---------------------|-----4b-^-^p2--------|---------------4--0--|--4------------4--0--|--2------------2-----|
chorus PM---| PM-----------------------|------------------------------0-0-0-0-0-0-0-0-0-0-------------------------------|----------------------------0-7-7-7-7-7-7-7-7-7-7b------------------------------|-----------2-1-------------------------------------x\-----------2-1-------------|--4-4-6-6-------4-2-1------------------------------x\--4-4-6-6------4-2-1-------|--2-2-2-2--------------4-2-----------------------------2-2-2-2-------------4-2--|--------------------------------------------------------------------------------|
------------------------------------------------------------|------------------------------------------------------------|-----------------------------------2-1----------------------|-----------2-1------------4-4-6-6------4-2-1--------4----4~-|--4-4-6-6------4-2-1------2-2-2-2-------------4-2---4----4~-|--2-2-2-2------------4-2----------------------------2----2~-|
with les paul type electronics, set lead to full and rhythm to 0 and flip toggle switch in specified rhythm, where the notes are when the lead pickup is on and the rests and the pickup is off in the neck position
--------------------------------------------------------------|--------------------------------------------------------------|--------------------------------------------------------------|--(4)-(4)-(4)-(4)-(4)-(4)-(4)-(4)-(4)-(4)-(4)-(4)-(4)-(4)-(4)-|--(4)-(4)-(4)-(4)-(4)-(4)-(4)-(4)-(4)-(4)-(4)-(4)-(4)-(4)-(4)-|--(2)-(2)-(2)-(2)-(2)-(2)-(2)-(2)-(2)-(2)-(2)-(2)-(2)-(2)-(2)-|
7. RED HOT /- slide down \- slide up p- pull off h- hammer on (#)- let ring ^- use bar b- bend ~- let ring PM- palm mute x- palm mute
intro- pick scraped-------------------------------------------------------------------|g-------------------------------------------------------------------|c-------------------------------------------------------------------|f-------------------------------------------------------------------|a--x\-----------------\---------------------\--------------------\--|d--x\------------------\---------------------\--------------------\-|
d-------------------------------------------------------------------------|g-------8p7----7---------8p7----7---------8p7----7----------8p7----7------|c--9----7------7----9----7------7----9----7------7----7-----7------7----9-|f--9---------9------9---------9------9---------9------7----------9------9-|a--7----------------7----------------7----------------5-----------------7-|d--0----------------0----------------0----------------------------------0-|
PM-------| PM---------------------|d--------------------------------------------------------------|g--------------------8p7--8--8----------------------8p7--8--8--|c--7/9---------------7----7--7----7/9---------------7----7--7--|f--7/9---------------5----5--5----7/9---------------5----5--5--|a--5/7----------------------------5/7--------------------------|d-------0-0-0-0-0-0--------------------0-0-0-0-0-0-------------|
PM-------| PM---------------------|d--------------------------------------------------------------|g--------------------8p7--8--8----------------------8p7--8-----|c--7/9---------------7----7--7----7/9---------------7----7--7--|f--7/9---------------5----5--5----7/9---------------5----5--7--|a--5/7----------------------------5/7-----------------------5--|d-------0-0-0-0-0-0--------------------0-0-0-0-0-0-------------|
verse PM-----------------------|d--------------------------------------------------------------------------------|g---------------------------------------------------------------------8p7--8-----|c-9--------7-7----9--------9-9----7---------------7/9-----------------7----7--7--|f-9--------7-7----9--------9-9----7----4--5-------7/9-----------------5----5--7--|a-7--------5-5----7--------7-7----5----------5----5/7-------------------------5--|d-0---------------0-------------------------------------0-0-0-0-0-0--------------|
d------------------------------------------------------------|g------------------------------------------------------------|c--9--------7-7----9--------9-9----7---------------9----9--7-|f--9--------7-7----9--------9-9----7----4--5-------9----9--7-|a--7--------5-5----7--------7-7----5----------5----7----7--5-|d--0---------------0-------------------------------0---------|
pre chorus PM--------------------------|d-----------------------------------------------|g-----------------------------------------------|c--5-----7-----7/9------------------------9--7--|f--5-----7-----7/9------------------------9--7--|a--3-----5-----5/7------------------------7--5--|d-------------------0-0-0-0-0-0--0-0-0-0--------|
PM--------------------------|d-----------------------------------------------|g-----------------------------------------------|c--5-----7-----7/9------------------------9--7--|f--5-----7-----7/9------------------------9--7--|a--3-----5-----5/7------------------------7--5--|d-------------------0-0-0-0-0-0--0-0-0-0--------|
PM--------------------------|d-----------------------------------------------|g-----------------------------------------------|c--5-----7-----7/9------------------------9--7--|f--5-----7-----7/9------------------------9--7--|a--3-----5-----5/7------------------------7--5--|d-------------------0-0-0-0-0-0--0-0-0-0--------|
PM---------| PM PM--------------------------| PMd----------------------------------------------------------------|g----------------------------------------------------------------|c--5----4----2---------------5-----5-----5-----------------------|f--5----4----2---------------5-----5-----5--0-0--7p5--7p5--5-----|a--3----2----0--0-0-0-0-0-0----0-0---0-0---------7p5--7p5--5--7--|d-------------------------------------------------------------5--|
chorusd---------------------------------------------------------------------|g-------8p7----7---------8p7----7----------8p7----7----------8p7----7-|c--9----7------7----9----7------7----7-----7------7----9-----7------7-|f--9---------9------9---------9------7----------9------9----------9---|a--7----------------7----------------5-----------------7--------------|d--0----------------0----------------------------------0--------------|
d----------------------------------------------------------------|g-------8p7----7---------8p7----7----------8p7----7--------------|c--9----7------7----9----7------7----7-----7------7----9-----7-7-|f--9---------9------9---------9------7----------9------9-----7-7-|a--7----------------7----------------5-----------------7-----5-5-|d--0----------------0----------------------------------0---------|
d---------------------------------------------------------------------|g-------8p7----7---------8p7----7----------8p7----7----------8p7----7-|c--9----7------7----9----7------7----7-----7------7----9-----7------7-|f--9---------9------9---------9------7----------9------9----------9---|a--7----------------7----------------5-----------------7--------------|d--0----------------0----------------------------------0--------------|
d--------------------------------------------------------------|g-------8p7----7---------8p7----7----------8p7----7------------|c--9----7------7----9----7------7----7-----7------7----9----9\-|f--9---------9------9---------9------7----------9------9----9\-|a--7----------------7----------------5-----------------7----7\-|d--0----------------0----------------------------------0-------|
verse PM-----------------------|d--------------------------------------------------------------------------------|g---------------------------------------------------------------------8p7--8-----|c-9--------7-7----9--------9-9----7---------------7/9-----------------7----7--7--|f-9--------7-7----9--------9-9----7----4--5-------7/9-----------------5----5--7--|a-7--------5-5----7--------7-7----5----------5----5/7-------------------------5--|d-0---------------0-------------------------------------0-0-0-0-0-0--------------|
d------------------------------------------------------------|g------------------------------------------------------------|c--9--------7-7----9--------9-9----7---------------9----9--7-|f--9--------7-7----9--------9-9----7----4--5-------9----9--7-|a--7--------5-5----7--------7-7----5----------5----7----7--5-|d--0---------------0-------------------------------0---------|
solod----------------------------------------------------------------------------|g----------------------------------------------------------------------------|c--2b----p0--2~----0----------------------------0----------------------------|f--------------------4--0---0h2p0h2p0--0-----2-----4~~--2--0--0^(2)~~--2--0--|a-----------------------------------------3----------------------------------|d----------------------------------------------------------------------------|
PM-----------|d-------------------------------------------------------------------------------|g-----0---------1-----------------------------------0---------------------------|c---0-0------2--2----2/4----2--0--2/4--2--0------0--0------4--2--2--------------|f-2-2-----4--4-------4/5----4--2--4/5--4--2---2--2------1--1--4--2--------------|a-3-------5-----------------------------------3---------2--------0-0-0-0-0-0-0--|d-------------------------------------------------------------------------------|
PM PM PMd---------------------------------------|g---------------------------------------|c--5------5------5----------------------|f--5------5------5-------7p5--7p5--5----|a-----0-0----0-0----0-0--7p5--7p5--5--7-|d-------------------------------------5-|
outrod---------------------------------------------------------------------|g-------8p7----7---------8p7----7----------8p7----7----------8p7----7-|c--9----7------7----9----7------7----7-----7------7----9-----7------7-|f--9---------9------9---------9------7----------9------9----------9---|a--7----------------7----------------5-----------------7--------------|d--0----------------0----------------------------------0--------------|
PM--------| PM----------------------|d--------------------------------------------------------------|g--------------------8p7--8--8----------------------8p7--8--8--|c--7/9---------------7----7--7----7/9---------------7----7--7--|f--7/9---------------5----5--5----7/9---------------5----5--5--|a--5/7----------------------------5/7--------------------------|d-------0-0-0-0-0-0--------------------0-0-0-0-0-0-------------|
PM--------| PM----------------------|d--------------------------------------------------------------|g--------------------8p7--8--8----------------------8p7--8--8--|c--7/9---------------7----7--7----7/9---------------7----7--7--|f--7/9---------------5----5--5----7/9---------------5----5--5--|a--5/7----------------------------5/7--------------------------|d-------0-0-0-0-0-0--------------------0-0-0-0-0-0-------------|
PM--------| PM----------------------|d--------------------------------------------------------------|g--------------------8p7--8--8----------------------8p7--8--8--|c--7/9---------------7----7--7----7/9---------------7----7--7--|f--7/9---------------5----5--5----7/9---------------5----5--5--|a--5/7----------------------------5/7--------------------------|d-------0-0-0-0-0-0--------------------0-0-0-0-0-0-------------|
8. TOO YOUNG TO FALL IN LOVE drop D tuning-DGCFAD \ -slide up / -slide down ^ -use bar ~ -let ring
Intro------------------------------------------------|------------------------------------------------|----------------------------7-----5--------5----|----------------------------7-----7--------5----|-------------17/---------0-----0-----0--0-----0-|------------------------------------------------|
----------------------------------------------------------------|----------------------------------------------------------------|--4--5------------7-----5--------5----4----5------7-----5-------|--5--5------------7-----7--------5----5----5------7-----7-------|---------------0----0-----0---0----------------------0-----0--0-|--------0--3----------------------------0------1----------------|
------------------------------------------------------------|------------------------------------------------------------|--5-----4--5------------------------------------------------|--5-----5--5------------9-----7--------10---------9---------|-----0------------------7-----5--------8----------7--3--2---|--------------0---0--0-----0-----0--0------0--0-----------3-|
--------------------------------------------------------------------|--------------------------------------------------------------------|------7-----5--------5------4--5----------7-----5--------5-----4--5-|------7-----7--------5------5--5----------7-----7--------5-----5--5-|---0-----0-----0--0-----0--------------------0-----0--0-----0-------|-----------------------------------0---3----------------------------|
-------------------------------------------------------------|-------------------------------------------------------------|-----------7-----5--------5-----4--5-------------------------|-----------7-----7--------5-----5--5-----------9-----7-------|--------------0-----0--0-----0-----------------7-----5-------|---0---1-----------------------------0---0--0-----0-----0--0-|
------------------------------------------------------------------|------------------------------------------------------------------|------------------------------------------------------------------|---10--------9--9--9--9---------9-----7--------10---------9-------|---8---------7--7--7--7---------7-----5--------8----------7--3--2-|-------0--0---------------0--0-----0-----0--0------0--0-----------|
Verse----------------------------------------------------------------|----------------------------------------------------------------|----------5--------5--------5--------5--------7--\--5--------5--|----------7--------7--------7--------7--------5--\--3--------3--|-------0-----0--0-----0--0-----0--0-----0--0-----------0--0-----|---3------------------------------------------------------------|
-----------------------------------------------------------------|-----------------------------------------------------------------|---------5--------5--------5--7---5--------5--------5--------5---|---------3--------3--------3--5---7--------7--------7--------7---|--0--0-----0--0-----0--0-------------0--0-----0--0-----0--0----0-|-----------------------------------------------------------------|
----------------------------------------------------------------|----------------------------------------------------------------|------7--\---5--------5--------5--------5--------5--5---4-------|------5--\---3--------3--------3--------3--------3--3---2--2--2-|---0------------0--0-----0--0-----0--0-----0--0-----------------|----------------------------------------------------------------|
-----------------------------------------------------------------|-----------------------------------------------------------------|--------------5--------5--5--5--5--5--------5--------5--------5--|--2--2--2--2--3--3--3--3--3--3--3--3--------3--------3--------3--|--------------------------------------0--0-----0--0-----0--0-----|-----------------------------------------------------------------|
-----------------------------------------------------------------|-----------------------------------------------------------------|--------5--5--4--------------------5--------5--5--5--5--4--------|--------3--3--2--2--2--2--2--2--2--3--3--3--3--3--3--3--2--0-----|--0--0-----------------------------------------------------------|-----------------------------------------------------------------|
------------------------------------------|------------------------------------------|-----5--------4--------5--------4--5--/-7-|-----3--------2--0-----3--------2--3--/-5-|--0-----0--0--------0-----0--0------------|------------------------------------------|
Chorus---------------------------------------------------------|---------------------------------------------------------|----7-----5--------5-----4--5---------7-----5-------5----|----7-----7--------5-----5--5---------7-----7-------5----|--0----0-----0--0-----0------------------0-----0--0----0-|-------------------------------0---3---------------------|
--------------------------------------------------------------|--------------------------------------------------------------|--4--5--------7-----5--------5-----4--5-----------------------|--5--5--------7-----7--------5-----5--5------------9-----7----|-----------------0-----0--0-----0------------------7-----5----|--------0--1-----------------------------0---0--0-----0-----0-|
-----------------------------------------------------------|-----------------------------------------------------------|-------------------------------7-----5--------5-----4--5---|-----10--------9---------------7-----7--------5-----5--5---|-----8---------7--3--2------0-----0-----0--0-----0---------|--0------0--0-----------3--------------------------------0-|
-----------------------------------------------------------------|-----------------------------------------------------------------|-----7-----5--------5-----4--5---------7-----5--------5-----4--5-|-----7-----7--------5-----5--5---------7-----7--------5-----5--5-|--------0-----0--0-----0------------------0-----0--0-----0-------|--3------------------------------0--1----------------------------|
-------------------------------------------------------------|-------------------------------------------------------------|-------------------------------------------------------------|------------9-----7--------10--------9--9--9--9---------9----|------------7-----5--------8---------7--7--7--7---------7----|--0---0--0-----0-----0--0------0--0---------------0--0-----0-|
Verse---------------------------------------------------------------|---------------------------------------------------------------|-------------------------------------5--------5--------5-------|--7--------10--------9---------------7--------7--------7-------|--5--------8---------7--3--2------0-----0--0-----0--0-----0--0-|-----0--0------0--0-----------3--------------------------------|
--------------------------------------------------------------|--------------------------------------------------------------|---5--------7--\--5--------5--------5--------5--------5--7--5-|---7--------5--\--3--------3--------3--------3--------3--5--7-|------0--0-----------0--0-----0--0-----0--0-----0--0----------|--------------------------------------------------------------|
---------------------------------------------------------------|---------------------------------------------------------------|--------5--------5--------5--------7--\-5--------5--------5----|--------7--------7--------7--------5--\-3--------3--------3----|--0--0-----0--0-----0--0-----0--0----------0--0-----0--0-----0-|---------------------------------------------------------------|
-----------------------------------------------------------------|-----------------------------------------------------------------|-----5--------5--5--4-----------------------5---------5--5--5--5-|-----3--------3--3--2--2--2--2--2--2--2--3--3--3--3--3--3--3-----|--0-----0--0-----------------------------------------------------|-----------------------------------------------------------------|
----------------------------------------------------------------|----------------------------------------------------------------|--5--------5--------5--------5--------5--5--4-------------------|--3--------3--------3--------3--------3--3--2--2--2--2--2--2--2-|-----0--0-----0--0-----0--0-----0--0----------------------------|----------------------------------------------------------------|
----------------------------------------------------------------|----------------------------------------------------------------|--5--------5--5--5--5--5--------5--------5--------5--------5--5-|--3--3--3--3--3--3--3--3--------3--------3--------3--------3--3-|--------------------------0--0-----0--0-----0--0-----0--0-------|----------------------------------------------------------------|
-------------------------------------------------------------|-------------------------------------------------------------|--4--------------------5--------5--5--5--5--4--------5-------|--2--2--2--2--2--2--2--3--3--3--3--3--3--3--2--0-----3-------|--------------------------------------------------0-----0--0-|-------------------------------------------------------------|
------------------------------|------------------------------|--4--------5--------4--5--/-7-|--2--0-----3--------2--3--/-5-|--------0-----0--0------------|------------------------------|
Chorus-----------------------------------------------------------------|-----------------------------------------------------------------|-----7-----5--------5-----4--5---------7-----5--------5-----4--5-|-----7-----7--------5-----5--5---------7-----7--------5-----5--5-|--0-----0-----0--0-----0------------------0-----0--0-----0-------|-------------------------------0----3----------------------------|
--------------------------------------------------------------|--------------------------------------------------------------|-----------7-----5--------5-----4--5--------------------------|-----------7-----7--------5-----5--5------------9-----7-------|--------------0-----0--0-----0------------------7-----5-------|---0----1-----------------------------0---0--0-----0-----0--0-|
------------------------------------------------------------|------------------------------------------------------------|-----------------------------7-----5--------5-----4--5------|--10--------9----------------7-----7--------5-----5--5------|--8---------7--3--2-------0-----0-----0--0-----0------------|------0--0-----------3---------------------------------0--3-|
----------------------------------------------------------------|----------------------------------------------------------------|--7-----5--------5-----4--5--------7-----5--------5-----4--5----|--7-----7--------5-----5--5--------7-----7--------5-----5--5----|-----0-----0--0-----0-----------------0-----0--0-----0----------|----------------------------0---1-----------------------------0-|
Solo--7--7--7--7--7--7--7--7--7--7--5--7--4---5-----4----------|----------------------------------------6-----5---6---5--6-|-----------------------------------------------------------|-----------------------------------------------------------|-----------------------------------------------------------|-----------------------------------------------------------|
----------------------------------------------------------------|--5-----5--6-----5--6--5-----5--6--5-----5----------------------|-----7--------7-----------7-----------7-----7^--7^--7^~~~--4--5-|----------------------------------------------------------------|----------------------------------------------------------------|----------------------------------------------------------------|
-------------------------------------------------------------------|-------------------------------------------------------------------|--7--4--5--7--4--5--7--4--5--7--4--5--7--4--5--7--4--5--7--4--5--7-|-------------------------------------------------------------------|-------------------------------------------------------------------|-------------------------------------------------------------------|
--------------------5------------------5--7--8--5--7--8--5--7-|-----------6--5--------6--5-----6--5--------------------------|--4--5--7--------7-----------7--------------------------------|--------------------------------------------------------------|--------------------------------------------------------------|--------------------------------------------------------------|
---8--5--7--8--5--7--8--5--7--8--5--7--8--5--7--8--12--13--15-|--------------------------------------------------------------|--------------------------------------------------------------|--------------------------------------------------------------|--------------------------------------------------------------|--------------------------------------------------------------|
--12--13--15--15--12--13--15--12--12--12--15^--15^--15^--15^-|-------------------------------------------------------------|-------------------------------------------------------------|-------------------------------------------------------------|-------------------------------------------------------------|-------------------------------------------------------------|
------12--13------12--13------12----------------------------------|--15----------15-----------15------13--15--12--13------12---------|---------------------------------------------------14------12--14-|------------------------------------------------------------------|------------------------------------------------------------------|------------------------------------------------------------------|
-----------------------------------------------------------------|-----------------------------------------------------------------|---10--12--10--9---9--10--9------9--10--9------9--10--12--12--10-|------------------------------12-----------12--------------------|-----------------------------------------------------------------|-----------------------------------------------------------------|
---------------------------------------------------------------|---------------------------------------------------------------|---9--9\-----5--------5--------5--------5--------7--\--5-------|-------------7--------7--------7--------7--------5--\--3-------|----------0-----0--0-----0--0-----0--0-----0--0-----------0--0-|---------------------------------------------------------------|
Verse----------------------------------------------------------------|----------------------------------------------------------------|--5--------5--------5--------5--7------5--------5--------5------|--3--------3--------3--------3--5------7--------7--------7------|-----0--0-----0--0-----0--0--------0-----0--0-----0--0-----0--0-|----------------------------------------------------------------|
----------------------------------------------------------|----------------------------------------------------------|--5--------7--\--5--------5--------5--------5--------5--7-|--7--------5--\--3--------3--------3--------3--------3--5-|-----0--0-----------0--0-----0--0-----0--0-----0--0-------|----------------------------------------------------------|
Verse----------------------------------------------------------------|----------------------------------------------------------------|-----5--------5--------5--------5--------7--\--5--------5-------|-----7--------7--------7--------7--------5--\--3--------3-------|--0-----0--0-----0--0-----0--0-----0--0-----------0--0-----0--0-|----------------------------------------------------------------|
-----------------------------------------------------------------|-----------------------------------------------------------------|--5--------5--------5--7------5--------5--------5--------5-------|--3--------3--------3--5------7--------7--------7--------7-------|-----0--0-----0--0---------0-----0--0-----0--0-----0--0-----0--0-|-----------------------------------------------------------------|
-------------------------------------------------------------|-------------------------------------------------------------|--7--\--5--------5--------5--------5--------5--5--4----------|--5--\--3--------3--------3--------3--------3--3--2--2--2--2-|-----------0--0-----0--0-----0--0-----0--0-------------------|-------------------------------------------------------------|
-----------------------------------------------------------------|-----------------------------------------------------------------|-----------5--------5--5--5--5---5--------5--------5--------5----|--2--2--2--3--3--3--3--3--3--3---3--------3--------3--------3----|------------------------------------0--0-----0--0-----0--0-----0-|-----------------------------------------------------------------|
----------------------------------------------------------------|----------------------------------------------------------------|------5--5---4--------------------5--------5--5--5--5--4--------|------3--3---2--2--2--2--2--2--2--3--3--3--3--3--3--3--2--0-----|--0-----------------------------------------------------------0-|----------------------------------------------------------------|
----------------------------------------|----------------------------------------|--5--------4--------5--------4--5--/--7-|--3--------2--0-----3--------2--3--/--5-|-----0--0--------0-----0--0-------------|----------------------------------------|
Chorus-------------------------------------------------------------|----------------------------------
Tap to rate this tab
 
# A B C D E F G H I J K L M N O P Q R S T U V W X Y Z