Motley Crue – Save Our Souls tab

save our souls
motley crue

drop D tuning- DGCFAD

\- slide down
/- slide up
(#)- note in parenthesis is a ghost note
~- let ring
x- palm mute

intro- x2-------------------------------------------------------------------------3--3-----------------2--2---------------------2--2-----------------2--2--2-0----------------0--0-----------------0--0-------3-2--3-2------------3-2---3--2-------------------------3--------------3------3-
gtr 2- with slide--------------------------------------------------------------------------------/17---------------------------9-/-14~~~-----(14)-----------/17----/14~~----(14)-\-------------------------------------------------------------------------------------------------------------------------------------------------------------------
verse- x2----------------------------------------------------------------------------------------------------2----5----7-------7--5----2----5--7-------7--5---2----5----7-------7--5----2----5--7-------7--5---0----3----5----0--5--3----0----3--5----0--5--3--------------------------------------------------
chorus----------------------------------------------------------------------------------------------------------------------------------------------------------------------------------------------5--5------------------------------------7-5---5-7/10-----7-5-0-7\--5--5--5--5---3----3--5/7--5----5--3--0--7-5-0-5-7/10--0--7-5-0-7\--3--3--5--5---------------------------------------------------------------3--3-
-----------------------------------------------------------------------------------------------------------------------------------------------------------------------------------------------------------------------7-5---5-7/10----7-5---7-----------------------------7-5---5-7/10---0--7-5-0-5-7/10--0-7-5-0-7----3----3-5/7--5----5--3--0-7-5-0-5-7/10-----------------------------------------------------------------------
----------------------------------------------------------------------------------2-----7-5-0-7\----3----5----2---0-7-5-0-7\----3----5----0-----------------1----3------
chorus ending- x2-------------------------------------------------------------------------3--3-----------------2--2---------------------2--2-----------------2--2--2-0----------------0--0-----------------0--0-------3-2--3-2------------3-2---3--2-------------------------3--------------3------3-
gtr 2- with slide--------------------------------------------9-/-14~~~-----(14)----------------------------------------------------------------
verse- x2----------------------------------------------------------------------------------------------------2----5----7-------7--5----2----5--7-------7--5---2----5----7-------7--5----2----5--7-------7--5---0----3----5----0--5--3----0----3--5----0--5--3--------------------------------------------------
chorus----------------------------------------------------------------------------------------------------------------------------------------------------------------------------------------------5--5------------------------------------7-5---5-7/10-----7-5-0-7\--5--5--5--5---3----3--5/7--5----5--3--0--7-5-0-5-7/10--0--7-5-0-7\--3--3--5--5---------------------------------------------------------------3--3-
-----------------------------------------------------------------------------------------------------------------------------------------------------------------------------------------------------------------------7-5---5-7/10----7-5---7-----------------------------7-5---5-7/10---0--7-5-0-5-7/10--0-7-5-0-7----3----3-5/7--5----5--3--0-7-5-0-5-7/10-----------------------------------------------------------------------
----------------------------------------------------------------------------------2-----7-5-0-7\----3----5----2---0-7-5-0-7\----3----5----0-----------------1----3------
solo-------17--17\15----/20-17-17\15-----------------------------------10/-(x)--------17--------------17------------------------------------------------------------------17~-(17)--14\12---12~--(12)\-----------------------------------------------------14---------------------------------------------------------------------------------------------------------------------------------------------
--22\21----22\21----22\21----22\21--------------------20-------------------------22-------22-------22-------22\20--(20)--20/22----22-(22)-\5-/-17-----------------------------------------------------------------------------------------------------------------------------------------------------------------------------------------------------------------------------------------------------------------------------------------------------
--17----17--17\15----/20-17-17\15--------------------------------------------17-----------17--------------17-------------------------------------------------------------------------17~~--(17)--14\12----12-~~--(12)-\--------------------------------------------------------14---------------------------------------------------------------------------------------------------------------------------------------------------------------
tremolo pick while sliding------------------17--17\15----/20--(20)-\-------------10-/-(x)--------17---------------5--/--10------------------------------------------------------------------------------------------------------------------------------------------------------------------
------------------------------------------------------------------------------------14\12---12--14-(14)\--14\12---14-(14)\---------14-------------------14--------------------------------------------------------------------------------------------
------------------------------------------------------------------------------------------------------------------------------------------------------------------------------------------------7-5---5-7/10----7-5-0-7---3----3--5/7--5----5--3----0-7-5-0-5-7/10--0-7-5-0-7-------------------------------------------------------
------------------------------------------------/17----------------------/17----------------------/17--14--14-(14)\12------/17--14-(14)-\-------------------------------------------------------------------------------------------------------------------------------------------
----------------------------------------------------------------------------------------------------------5----5----------------------------------------------5----5--5----5----7-5------5-7/10------7-5----0-7---3----3--5----5--0-7-5----0-5-7/10----0-7-5----0-7-----------3----3------------------------------------
gtr 2- under the above portion-----------------------------------------------------15\14----15\14-----------15\14----15\14------------------14-------14-(14)\--------14-------14-(14)\----------------------------------------------------------------------------------------------------------------------------------------------------------
------------------------------------------------------------------------------------------------------------------------------------------------------------------------------------------------------------------------------------7-5---5-7/10------7-5-0-7----3----5---3----3--5/7--5----5--3----0-7-5-0-5-7/10----0-7-5-0-7----3----5------------------------------------------------------------1----3-
verse- x2----------------------------------------------------------------------------------------------------2----5----7-------7--5----2----5--7-------7--5---2----5----7-------7--5----2----5--7-------7--5---0----3----5----0--5--3----0----3--5----0--5--3--------------------------------------------------
outro chorus-------------------------------------------------------------------------------------------------------------------------------------------------------------------------------------------------5--5-------------------------------------7-5---5-7/10------7-5-0-7--5--5--5--5---3----3--5/7--5----5--3----0-7-5-0-5-7/10----0-7-5-0-7--3--3--5--5----------------------------------------------------------------3--3-
gtr 2--------------------------------------------------------------------------------------14\12---12--14-(14)\--14\12----14-(14)\---------14--------------------14----------------------------------------------------------------------------------------------
----------------------------------------------------------------------------------------------7-5---5-7/10------7-5-0-7---0-7-5-0-5-7/10----0-7-5-0-7-------------------------------
gtr 2--------------------------------------------------------15\14----15-\-14-----------15\14----15\14-------------------14---------14-(14)\--------14-------14-(14)-\-------------------------------------------------------------------------------------------------------------------------------------------------------------------
------------------------------------------------------------------------------------------------------------------------------------------------------------------------------------------------------------------7-5------5-7/10------7-5--0-7---3----3--5/7--5----5--3----0-7-5----0-5-7/10----0-7-5--0-7-------------------------------------------------------------
gtr 2-------------------------------------------------/17-----------------------/17----------------------/17--14--14-(14)-\-12-----/17--14-(14)-\----------------------------------------------------------------------------------------------------------------------------------------------
----------------------------------------------------------------------------------------------------------------------------2--------------2--------------2----(2)----2---3----5----2----3----5----2----3----5----2----(2)----2---3----5----0----3----5----0----3----5----0----(0)----0---1----3---------1----3---------1----3------------------
questions email me- valkeyrie3@hotmail.com
Please rate this tab:
x1.0