Motley Crue – Hammered tab

Song: hammered
By motley crue
Tabbed by : silk moth- bighabit69@iamwasted.com

CHORDS USED:
          C5                   D5                   B5           N.C= no chord.
      x 3 5 x x x          x 5 7 x x x          x 2 4 x x x   

 Intro
 
  
 
Gtr I ~~~~~~|----------|-------------------------------------||----------|-------------------------------------||----------|-------------------------------------||----------|-------------------------------------||----------|-----------------5-(5)---7-5---5s4---||--------0-|-(0)-0-3-0-5-6-7-------7-----7-----0-|
|
| Gtr II|----------|-------------------------------------||----------|-------------------------------------||----------|-------------------------------------||----------|-------------------------------------||----------|-------------------------------------||----------|-------------------------------------|
Em PM--| ~~~~~~|-------------------------------------||-------------------------------------||-------------------------------------||-------------------------------------||-----------------5-(5)---7-5---5s4---||-(0)-0-3-0-5-6-7-------7-----7-----0-|
|
|-----------------------------------0-||-----------------------------------0-||-----------------------------------0-||-----------------------------------2-||-----------------------------------2-||-----------------------------------0-|
~~~~~~|-------------------------------------||-------------------------------------||-------------------------------------||-------------------------------------||-----------------5-(5)---7-5---5s4---||-(0)-0-3-0-5-6-7-------7-----7-----0-|
|
|-(0)---------------------------------||-(0)---------------------------------||-(0)---------------------------------||-(2)---------------------------------||-(2)---------------------------------||-(0)---------------------------------|
PM--| ~~~~~~ PM--| ~~~~~~|-------------------------------------|-------------------------------------||-------------------------------------|-------------------------------------||-------------------------------------|-------------------------------------||-------------------------------------|-------------------------------------||-----------------5-(5)---7-5---5s4---|-----------------5-(5)---7-5---5s4---||-(0)-0-3-0-5-6-7-------7-----7-----0-|-(0)-0-3-0-5-6-7-------7-----7-----0-|
|
| PM--| ~~~~~~|-(0)---------------(0)---------------|-----0-------------------------------||-(0)---------------(0)---------------|-----0-------------------------------||-(0)---------------(0)---------------|-------------------------------------||-(2)---------------(2)---------------|-------------------------------------||-(2)---------------(2)---------------|-----------------5-(5)---7-5---5s4---||-(0)---------------(0)-------------0-|-(0)---3-0-5-6-7-------7-----7-----0-|
PM--| ~~~~~~ PM--| ~~~~~~|-------------------------------------|-------------------------------------||-------------------------------------|-------------------------------------||-------------------------------------|-------------------------------------||-------------------------------------|-------------------------------------||-----------------5-(5)---7-5---5s4---|-----------------5-(5)---7-5---5s4---||-(0)-0-3-0-5-6-7-------7-----7-----0-|-(0)-0-3-0-5-6-7-------7-----7-----0-|
|
| PM--| ~~~~~~ PM--| ~~~~~~|-----0-------------------------------|-----0-------------------------------||-----0-------------------------------|-----0-------------------------------||-------------------------------------|-------------------------------------||-------------------------------------|-------------------------------------||-----------------5-(5)---7-5---5s4---|-----------------5-(5)---7-5---5s4---||-(0)---3-0-5-6-7-------7-----7-----0-|-(0)---3-0-5-6-7-------7-----7-----0-|
PM--| ~~~~~~|-------------------------------------|||-------------------------------------|||-------------------------------------|||-------------------------------------|||-----------------5-(5)---7-5---5s4-2-|||-(0)-0-3-0-5-6-7-------7-----7-----0-||
|
| PM--| ~~~~~~|-----0-------------------------------|||-----0-------------------------------|||-------------------------------------|||-------------------------------------|||-----------------5-(5)---7-5---5s4-2-|||-(0)---3-0-5-6-7-------7-----7-----0-||
1st Verse Em Em7|--------------3-|-(3)----(3)---------------||--------------3-|-(3)----(3)---------------||--------------0-|-(0)----(0)---------------||--------------2-|-(2)----(2)---------------||-(2)----(2)-----|------------7-5---5-------||-(0)----(0)-----|----------------7---7-3-0-|
|
|--------------3-|-(3)----(3)---------------||--------------3-|-(3)----(3)---------------||--------------0-|-(0)----(0)---------------||--------------2-|-(2)----(2)---------------||-(2)----(2)-----|--------------------------||-(0)----(0)-----|------------------------0-|
PM--| ~~~~~~|--------------------------------------||--------------------------------------||--------------------------------------||--------------------------------------||-----------------5-(5)---7-5---5s4----||-(0)-0-3-0-5-6-7-------7-----7-----0--|
|
| PM--| ~~~~~~|-----0--------------------------------||-----0--------------------------------||--------------------------------------||--------------------------------------||-----------------5-(5)---7-5---5s4----||-(0)---3-0-5-6-7-------7-----7-----0--|
Em PM--| ~~~~~~|-------------------------------------||-------------------------------------||-------------------------------------||-------------------------------------||-----------------5-(5)---7-5---5s4-2-||-(0)-0-3-0-5-6-7-------7-----7-----0-|
|
| PM--| ~~~~~~|-----0-------------------------------||-----0-------------------------------||-------------------------------------||-------------------------------------||-----------------5-(5)---7-5---5s4-2-||-(0)---3-0-5-6-7-------7-----7-----0-|
Em7|--------------3-|-(3)----(3)----------------||--------------3-|-(3)----(3)----------------||--------------0-|-(0)----(0)----------------||--------------2-|-(2)----(2)----------------||-(2)----(2)-----|------------7-5---5--------||-(0)----(0)-----|----------------7---7-3-0--|
|
|--------------3-|-(3)----(3)----------------||--------------3-|-(3)----(3)----------------||--------------0-|-(0)----(0)----------------||--------------2-|-(2)----(2)----------------||-(2)----(2)-----|---------------------------||-(0)----(0)-----|------------------------0--|
PM--| ~~~~~~ PM--| ~~~~~~|-------------------------------------|-------------------------------------||-------------------------------------|-------------------------------------||-------------------------------------|-------------------------------------||-------------------------------------|-------------------------------------||-----------------5-(5)---7-5---5s4---|-----------------5-(5)---7-5---5s4-2-||-(0)-0-3-0-5-6-7-------7-----7-----0-|-(0)-0-3-0-5-6-7-------7-----7-----0-|
|
| PM--| ~~~~~~ PM--| ~~~~~~|-----0-------------------------------|-----0-------------------------------||-----0-------------------------------|-----0-------------------------------||-------------------------------------|-------------------------------------||-------------------------------------|-------------------------------------||-----------------5-(5)---7-5---5s4---|-----------------5-(5)---7-5---5s4-2-||-(0)---3-0-5-6-7-------7-----7-----0-|-(0)---3-0-5-6-7-------7-----7-----0-|
Em G5|------0--(0)--0---|------3------3-3--3-3----|||------0--(0)--0---|--------3----3-3--3-3----|||----------------0-|-(0)------0--0-0--0-0--5-|||----------------0-|-(0)---------0-0--0-0--5-|||-(2)------------x-|-(x)---------x-x--x-x--3-|||-(0)------------3-|-(3)---------3-3--3-3----||
|
|------------------|-------------------------|||------------------|-------------------------|||------------------|-------------------------|||------------------|-----------------------5-|||------------------|-----------------------3-|||------------------|-------------------------||
Chorus C5 D5 N.C.|-----------3-------|---------5-------|-------------------------------||-------------3-----|-----------5-----|-------------------------------||-(5)---5-------5---|-----7-------7---|-------------------------------||-(5)-5---5-------5-|---7---7-------7-|-------5-(5)-------------5-(5)-||-(3)---------------|-5---------------|-------------7-(7)-5-6-7-------||-------------------|-----------------|-5-6-7-------------------------|
|
| PM PM PM PM PM PM PM PM|-------------------|-----------------|-------------------------------||-------------------|-----------------|-------------------------------||-------------------|-----------------|-------------------------------||-(5)---5---5---5---|-7---7---7---7---|-------------------------------||-(3)-3-3-3-3-3-3-3-|-5-5-5-5-5-5-5-5-|-------------------------------||-------------------|-----------------|-------------------------------|
C5 D5 ~~~~~~|------------------------|---------3-------|---------5-------|||------------------------|-----------3-----|-----------5-----|||------------------------|-5---5-------5---|-----7-------7---|||-------5--5-------7-9\--|-5-5---5-------5-|---7---7-------7-|||------------7-(7)-5-7\--|-3---------------|-5---------------|||-5-6-7------------------|-----------------|-----------------||
|
| PM PM PM PM PM PM PM PM|------------------------|-----------------|-----------------|||------------------------|-----------------|-----------------|||------------------------|-----------------|-----------------|||------------------------|-5---5---5---5---|-7---7---7---7---|||------------------------|-3-3-3-3-3-3-3-3-|-5-5-5-5-5-5-5-5-|||------------------------|-----------------|-----------------||
2nd Verse Em Em7|------------3-|-(3)----(3)------------------||------------3-|-(3)----(3)------------------||------------0-|-(0)----(0)------------------||------------2-|-(2)----(2)------------------||-2----(2)-----|------------7-5---5----------||-0----(0)-----|----------------7---7---3--0-|
|
| ~~~|--------------|-----------------------------||--------------|--------------------------15-||--------------|----------------------/16----||--------------|-----------------------------||--------------|-----------------------------||--------------|-----------------------------|
PM--| ~~~~~~~|-----------------------------------------------------||-----------------------------------------------------||-----------------------------------------------------||-----------------------------------------------------||------------------5--(5)-----7--5-----5s=4-----------||--(0)-0-3-0-5-6-7---------7--------7--------0--------|
|
|~~~~~~~~~~~~~~~~~~~~~~~~~|-----------------------------------------------------||-(15)---------------(15)----15----14----14-----------||-------------------------16----14----14----12b12.5===||-----------------------------------------------------||-----------------------------------------------------||-----------------------------------------------------|
Em PM---| ~~~~~~~~~~~~~~|----------------------------------------------------------------||----------------------------------------------------------------||----------------------------------------------------------------||----------------------------------------------------------------||-------------------------5---------(5)---7-5-------5s=4--2------||---0----0-3-0---5--6--7----------------7-------7---------0------|
|
| ~~~~~~~~~~~ ~~~~~~~~|-----------------------------------------------------15---------||---------------------15-12-15b17==(15)-------(15)r------15pb17==||-(12)r----------------------------------------------------------||-------14-----(14)----------------------------------------------||----------------------------------------------------------------||----------------------------------------------------------------|
Em7|---------------3-|--(3)-----(3)---------------||---------------3-|--(3)-----(3)---------------||---------------0-|--(0)-----(0)---------------||---------------2-|--(2)-----(2)-----------5---||--(2)----(2)-----|--------------7-5---5-------||--(0)----(0)-----|------------------7---7---0-|
|
|~~~~~~~~~~~~~~~~~~~~~~~~~|-----------------|----------------------------||-(15)------------|-(15)r----------------------||-----------------|----------------------------||-----------------|----------------------------||-----------------|----------------------------||-----------------|--------------------------4-|
PM--| ~~~~~~|-------------------------------------------||-------------------------------------------||-------------------------------------------||-------------------------------------------||--------------------5-(5)---7-5---5s=4-----||-(0)----0-3-0-5-6-7-------7-----7--------0-|
|
|-------------------------------------------||-------------------------------------------||-------------------------------------------||-------------------------------------------||-------------------------------------------||-(4)b9==============================(4)r---|
PM---| ~~~~~~~|----------------------------------------------------||----------------------------------------------------||----------------------------------------------------||----------------------------------------------------||------------------------5--(5)-----7--5-----5s=4--2-||-(0)--0--3--0--5--6--7----------7--------7--------0-|
|
| ~~~~~~~|----------------------------------------------------||--------12----14-12-12------------12----14-12-------||-----12----12----------12-(12)-12----12-------12----||-------------------------------------------------14-||----------------------------------------------------||----------------------------------------------------|
Em G|---------0----(0)--------------0----|------3------3-3--3-3----|||---------0----(0)--------------0----|--------3----3-3--3-3----|||----------------------------------0-|-(0)------0--0-0--0-0--5-|||----------------------------------0-|-(0)---------0-0--0-0--5-|||---2------------------------------x-|-(x)---------x-x--x-x--3-|||---0------------------------------3-|-(3)---------3-3--3-3----||
|
|------------------------------------|------3------3-3--3-3----|||------------------------------------|------3------3-3--3-3----|||----------------------------------0-|-(0)--0------0-0--0-0----|||-(14)--(14)\----------------------0-|-(0)--0------0-0--0-0--5-|||----------------------------------x-|-(x)--x------x-x--x-x--3-|||------------------<5>-<5>-<4>-<3>-3-|-(3)--3------3-3--3-3----||
Chorus Csus2 Dsus2|-----------3-------|---------5-------||-------------3-----|-----------5-----||-(5)---5-------5---|-----7-------7---||-(5)-5---5-------5-|---7---7-------7-||-(3)---------------|-5---------------||-------------------|-----------------|
|
| PM PM PM PM PM PM PM PM|-------------------|-----------------||-------------------|-----------------||-------------------|-----------------||-(5)---5---5---5---|-7---7---7---7---||-(3)-3-3-3-3-3-3-3-|-5-5-5-5-5-5-5-5-||-------------------|-----------------|
E5 ~~~~~~|-------------------------------|--------------------------||-------------------------------|--------------------------||-------------------------------|--------------------------||-------5-(5)-------------5-(5)-|-------5--5-------7-9\----||-------------7-(7)-5-6-7-------|------------7-(7)-5-7\----||-5-6-7-------------------------|-5-6-7--------------------|
|
|-------------------------------|--------------------------||-------------------------------|--------------------------||-------------------------------|--------------------------||-------------------------------|--------------------------||-------------------------------|--------------------------||-------------------------------|--------------------------|
Csus2 Dsus2 Bsus2 Csus2 Dsus2|---------3-------|---------5--------|---------2-------|-----------------|||-----------3-----|-----------5------|-----------2-----|-------------5---|||-5---5-------5---|-----7-------7----|-----4-------4---|-----5---------7-|||-5-5---5-------5-|---7---7--------7-|---4---4-------4-|---5---5---7-----|||-3---------------|-5----------------|-2---------------|-3-------5-------|||-----------------|------------------|-----------------|-----------------||
|
| PM PM PM PM PM PM PM|-----------------|------------------|-----------------|-----------------|||-----------------|------------------|-----------------|-----------------|||-----------------|------------------|-----------------|-----------------|||-5---5---5---5---|-7---7---7---7\---|-4---------------|-5-------7-------|||-3-3-3-3-3-3-3-3-|-5-5-5-5-5-5-5\---|-2---------------|-3-------5-------|||-----------------|------------------|-----------------|-----------------||
Interlude N.C. ~~||--------------------------------------|||o-15b17-(15)--15----------------------|||------------------14b15-(14)-14-12----|||-----------------------------------14-|||o-------------------------------------|||--------------------------------------|
|
| ~~~~~~~||--------------------------------------|||o-------------------------------------|||--------------------------------------|||--------------------------------------|||o--------/7----5----------------------|||-------------------5b6---(5)--5--3--0-|
~~|---------------------------17b18==(17)r(17)p15----15----||-15b17==(15)-15-15-15r-15----------------------17----17-||--------------------------------------------------------||--------------------------------------------------------||--------------------------------------------------------||--------------------------------------------------------|
|
| ~~|--------------------------------------------------------||--------------------------------------------------------||--------------------------------------------------------||--------------------------------------------------------||---------/7---7--7--7---5-------------------------------||------------------------------------6--------5-----3--0-|
~~|-------------------------------------||-15b17-(15)--15----------------------||-----------------14b15-(14)-14-12----||----------------------------------14-||-------------------------------------||-------------------------------------|
|
| ~~~~~~~|-------------------------------------||-------------------------------------||-------------------------------------||-------------------------------------||--------/7----5----------------------||------------------5b6---(5)--5--3--0-|
~~|---------------------------17b18==(17)r(17)p15----15-----|||-15b17==(15)-15-15-15r-15----------------------17----17-o|||---------------------------------------------------------|||---------------------------------------------------------|||--------------------------------------------------------o|||---------------------------------------------------------||
|
| ~~|---------------------------------------------------------|||--------------------------------------------------------o|||---------------------------------------------------------|||----------------------------7b8====(7)r=(7)p=5-----5-----|||---------/7---7--7--7---5-----------------------7-----7-o|||---------------------------------------------------------||
Bridge E5|----------|------------|---------|-------------|||----------|------------|---------|-------------|||----------|------------|---------|--x--x-------|||-9--------|-(9)--------|---------|-------------|||-7--------|-(7)--------|---------|-------x\----|||-0--------|-(0)--------|---------|-------------||
Guitar Solo ~~~|------------------|-------------------------------||------------------|-------------------------------||-----7h9-(9)------|-----7h9-7h9p7-----------------||-7-9--------------|-7h9-----------9s7-(7)b9--(7)--||------------------|-------------------------------||------------------|-------------------------------|
|--------------------------------------------||--------------------------------------------||-----7h9-7h9-(9)b11==(9)-(9)b15===(9)r(9)p0-||-7s9----------------------------------------||--------------------------------------------||--------------------------------------------|
|----------------------------------------||----------------------------------------||-----7h9-9---7h9------------------------||-7s9-------9-----9-5-7b8==(7)r(7)p5-----||------------------------------------7/--||----------------------------------------|
~~~~|--------------------------------12--------------------------------12-------------||------------12-15------------12---------------12-15------------12----15b17-(15)--||-14b16-(14)-------14b16-(14)-------14b16-(14)-------14b16-(14)-------------------||---------------------------------------------------------------------------------||---------------------------------------------------------------------------------||---------------------------------------------------------------------------------|
|-12----------------12-15-15b17==(15)--15r(15)-0--||----12-15----12-15-------------------------------||----------14-------------------------------------||-------------------------------------------------||-------------------------------------------------||-------------------------------------------------|
~~|--------------------------------------------||--------------------------------------------||-x-12-12-x-12-12-x-12-x-12-x-12----12-12----||-x-12-12-x-12-12-x-12-x-12-x-12-14-12-12-14-||--------------------------------------------||--------------------------------------------|
~~~|------------------------------------------------------|||------------------------------------------------------|||-x-x-12-------12--14-12--12-14b16==(14)r(14)-12-------|||-x-x-12-14-12-12--14-12--12---------------------14\---|||------------------------------------------------------|||------------------------------------------------------||
Chorus C5 C5 C5 C5 D5 D5 D5 D5 Gtr III
|---------3--------|---------5--------||-----------3------|-----------5------||-----5-------5----|-----7-------7----||---5---5--------5-|---7---7--------7-||-3----------------|-5----------------||------------------|------------------|
|
| Gtr II|------------------|------------------||------------------|------------------||------------------|------------------||-2---4---5---7\---|-2---4---5---7\---||------------------|------------------||------------------|------------------|
B5 | /
|--------------------------------------------2------------------------------------------||-------------------------------------------------------2-------------------------------||----------------------4-------------------------------------------4--------------------||-----------4---------------------4-------------------------------------------4---------||-2-------------------------------------------------------------------------------------||---------------------------------------------------------------------------------------|
|
|---------------------------------------------------------------------------------------||---------------------------------------------------------------------------------------||---------------------------------------------------------------------------------------||-4b6==(4)r(4)b6==(4)r(4)b6==(4)r(4)b6==(4)r(4)b6==(4)r(4)b6==(4)r(4)b6==(4)r(4)b6==(4)r||---------------------------------------------------------------------------------------||---------------------------------------------------------------------------------------|
C5 D5 | | / /
|----------------------------------------------------------------------------|||----------------------------------------------------------------------------|||------------------------5-------------------------------------------7-------|||-------------5---------------------5---------------------7-------------7----|||--3-------------------------------------------5-----------------------------|||----------------------------------------------------------------------------||
|
|----------------------------------------------------------------------------|||----------------------------------------------------------------------------|||----------------------------------------------------------------------------|||-(4)b6==(4)r(4)b6==(4)r(4)b6==(4)r(4)b6==(4)r(4)b6==(4)r(4)b6==(4)r(4)------|||-----------------------------------------------------------------------x-x--|||----------------------------------------------------------------------------||
Outro N.C. \1/ \1/ \1/ \1/ \1/ \1/|------10------(10)--(10)----(10)--(10)----(10)--(10)--||------12------(12)--(12)----(12)--(12)----(12)--(12)--||------------------------------------------------------||--x/--------------------------------------------------||------------------------------------------------------||------------------------------------------------------|
|
| ~~~~~~~|------------------------------------------------------||------------------------------------------------------||------------------------------------------------------||------------------------------------------------------||-/7----5----------------------------------------------||----------5b6--(5)--------5---------3---0-------------|
~~|------------------------------------------------------||------------------------------------------------------||-------------12---------------------------------------||-12s14-14-14----14-12-------------14------------------||----------------------14------12------14s12p==10------||-------------------------------------------------12---|
|
| ~~|------------------------------------------------------||------------------------------------------------------||------------------------------------------------------||-------------------------7b8==(7)r(7)p=5----------5---||-/7--7--7--7--5-----------------------------7-------7-||------------------------------------------------------|
|-------------------------------------||-15b17-(15)--15----------------------||-----------------14b15-(14)-14-12----||----------------------------------14-||-------------------------------------||-------------------------------------|
|
| ~~~~~~~|-------------------------------------||-------------------------------------||-------------------------------------||-------------------------------------||--------/7----5----------------------||------------------5b6---(5)--5--3--0-|
|---------------------------17b18==(17)r(17)-15----15----||-15b17==(15)-15-15-15r-15----------------------17----17-||--------------------------------------------------------||--------------------------------------------------------||--------------------------------------------------------||--------------------------------------------------------|
|
| ~~|--------------------------------------------------------||--------------------------------------------------------||--------------------------------------------------------||----------------------------7b8====(7)r=(7)p=5-----5----||---------/7---7--7--7---5-----------------------7-----7-||--------------------------------------------------------|
C5 D5 C5 Gtr III
~~~~~~~~~~~~~~~~~~~~~~~~~~~|----------------------|------------------------|--------------------------------------||-17-------------------|-(17)-------------------|--------------------------------10s12-||----------------------|------------------------|---------------------------9h12-------||----------------------|------------------------|-------12-12h14-----12h=14------------||----------------------|-------------------x\---|-12s14--------------------------------||----------------------|------------------------|--------------------------------------|
|
| ~~~~~ ~ ~~~~~~~~~~~~|----------------------|------------------------|--------------------------------------||----------------------|------------------------|--------------------------------------||----------------------|------------------------|--------------------------------------||----------------------|------------------------|--------------------------------------||-/7--5----------------|--/7--7-7-7-5-----------|-/7--------5--------------------------||--------5b6-(5)-5-3-0-|---------------6-5-3--0-|----------------5b6-(5)----5-----3--0-|
D5
|-----12-12-12---------------12---------------12---------------------||-/15----------15---------------12-15b17-(15)-----15----12-----------||-----------------14b16-(14)-------------------------14----12--------||-------------------------------------------------------------14\----||--------------------------------------------------------------------||--------------------------------------------------------------------|
|
| ~~|--------------------------------------------------------------------||--------------------------------------------------------------------||--------------------------------------------------------------------||-----------------------------------7b9===(7)r(7)p=5-----5-----------||--/7--7--7--7--5-------------------------------------7-----7--------||--------------------------------------------------------------------|
~ ~~~~~|----------|--------------------|---------------------------------------------||----------|--------------------|-----------------------12-12----15b17-(15)\--||----------|--------------------|-----------------------12-12-----------------||----------|---2-2-2-0-0-0------|-/14----12-12h14-12-14-------14--------------||-2--------|-3--------------x\--|-----14--------------------------------------||----------|--------------------|---------------------------------------------|
~~~~~|----------------------------------------||------15----15-17b20==(17)-(17)r--------||--/16----16-----------------------------||----------------------------------------||-----------------------------------x\---||----------------------------------------| C5 Gtr III
~~~~~~~~~~~~~~~|-/12--12-12----12---|-----(12)--12----15-12\---||------------15------|--------------15----------||--------------------|--------------------------||--------------------|--------------------------||--------------------|--------------------------||--------------------|--------------------------|
|
| Gtr II|--------------------|--------------------------||--------------------|--------------------------||--------------------|--------------------------||--------------------|--------------------------||--/7---------5------|--------------------------||--------------------|-5b6--(5)---5-----3--0----|
D5
~~~~~~~~~~~~~~~|-/12--12-12----12---|-----(12)--15-12-15b17-(15)-15------||------------15------|--------------------------------15--||--------------------|------------------------------------||--------------------|------------------------------------||--------------------|------------------------------------||--------------------|------------------------------------|
|
|--------------------|------------------------------------||--------------------|------------------------------------||--------------------|------------------------------------||--------------------|------------------------------------||--/7---------5------|------------------------------------||--------------------|-5b6--(5)---5------------3---0------|
C5
~~ ~~|-12--12----12----------------|-----------------------------------------||--------15-------------------|-----15b17r(15)p12-----------------------||---------------14b15r(14)p12-|-------------------14b16r(14)p12---------||-----------------------------|---------------------------------14\-----||-----------------------------|-----------------------------------------||-----------------------------|-----------------------------------------|
|
|-----------------------------|-----------------------------------------||-----------------------------|-----------------------------------------||-----------------------------|-----------------------------------------||-----------------------------|-----------------------------------------||-/7---------5----------------|-----------------------------------------||-----------------------------|-5b6-(5)------------5-------------3--0---|
D5
~|---------------------------|------------------------||---------------------------|------------------------||------7h9-9-9b11==(9)r(9)--|-9p===7-----------------||--7h9----------------------|---------9s7p==5--------||---------------------------|-----------------7------||---------------------------|------------------------|
|
|---------------------------|------------------------||---------------------------|------------------------||---------------------------|------------------------||---------------------------|-7b8r(7)p5-------5------||-/7-7-7-7-5----------------|-------------7-----7----||---------------------------|------------------------|
C5 D5 ~|--------------|----------------|--------------|----------------||--------------|----------------|--------------|----------------||-----7h9-9----|-----7h9-9-7----|-----7h9-9----|-----7h9--------||-7s9----------|-7s9---------7--|-7s9----------|-7s9-----5------||--------------|----------------|--------------|-----------7-7--||--------------|----------------|--------------|----------------|
C5 ~~~~ ~~~~~~|-12-----(12)--------|-12-12-12-12-12-----||-15b17==(15)--------|-15-15-15-15-15r----||--------------------|--------------------||--------------------|--------------------||--------------------|--------------------||--------------------|--------------------|
D5|-14-----(14)-14-14-14-14-14-14-14--|-15----(15)----17----(17)----||-17b19==(17)-17-17-17-17-17-17-17r-|-18b20-(18)----20b22-(20)----||-----------------------------------|-----------------------------||-----------------------------------|-----------------------------||-----------------------------------|-----------------------------||-----------------------------------|-----------------------------|
|---------------------------||---------------------------||-/12----------/12----------||-----14-14-14-----14-14-14-||---------------------------||---------------------------|
|
| Gtr II|---------------------------||---------------------------||---------------------------||---------------------------||--/7------------5----------||---------------------------|
|----------------12----(12)-----|------------------------||-----/x--0-/x-0-15b17-(15)-----|------------------------||-------------------------------|------------------------||-------------------------------|-------12h14-14--12h14--||-------------------------------|-12s14-------14---------||-------------------------------|------------------------|
|
|-------------------------------|------------------------||-------------------------------|------------------------||-------------------------------|------------------------||-------------------------------|------------------------||-------------------------------|-/7--7--7--7--5---------||-5b6-(5)----5-----------3--0---|------------------------|
|------------|-------------|-17b18r(17)p15----15-------||------------|-------------|---------------17----17\---||------------|-------------|---------------------------||------------|-------------|---------------------------||-14---------|-(14)--------|---------------------------||------------|-------------|---------------------------|
|
|------------|-------------|---------------------------|||------------|-------------|---------------------------|||------------|-------------|---------------------------|||------------|-------------|--7b8r==(7)p=5-----5--9----|||-(5)--------|--(5)--------|----------------7-----7----|||------------|-------------|---------------------------||
Please rate this tab:
x1.0