Motley Crue - Hell On High Heels tab

Hell on high heels by Motley Crue

(Intro)---------------------------------------------------|-------------------------------8--------7----------| x6---------------------7---------7--------7----------|--\--------7---------7---------5--------5----------|--\--------7---------5---------------------0--3--4-|--\--------5---------------------------------------|
(Verse)---------------------------------------------------|---------------------------------------------------|--5-------------------------5----------------------|--5-------------------------5----------------------|--3------------3------------3-----------3----------|-----0--2--3-----0--2--3-------0--2--3-----0--2--3-|
------------------------------------------|----------------------8--------7----------|------------7---------7--------7----------|--7---------7---------5--------5----------|--7---------5---------------------0--3--4-|--5---------------------------------------|
------------------------------------------|----------------------8--------7----------|------------7---------7--------7----------|--7---------7---------5--------5----------|--7---------5---------------------0--3--4-|--5---------------------------------------|
------------------------------------------|----------------------8--------7----------|------------7---------7--------7----------|--7---------7---------5--------5----------|--7---------5---------------------0--3--4-|--5---------------------------------------|
---------------------------------------------------|----------------------8--------7-------------------|------------7---------7--------7-------------------|--7---------7---------5--------5-------------------|--7---------5---------------------0--3--4----------|--5------------------------------------------------|---------------------------------------------------|---------------------------------------------------|--5------------------------5-----------------------|--5------------------------5-----------------------|--3-----------3------------3-----------3-----------|-----0--2--3-----0--2--3------0--2--3-----0--2--3--|
------------------------------------------|----------------------8--------7----------|------------7---------7--------7----------|--7---------7---------5--------5----------|--7---------5---------------------0--3--4-|--5---------------------------------------|
------------------------------------------|----------------------8--------7----------|------------7---------7--------7----------|--7---------7---------5--------5----------|--7---------5---------------------0--3--4-|--5---------------------------------------|
------------------------------------------|----------------------8--------7----------|------------7---------7--------7----------|--7---------7---------5--------5----------|--7---------5---------------------0--3--4-|--5---------------------------------------|
------------------------------------------|----------------------8--------7----------|------------7---------7--------7----------|--7---------7---------5--------5----------|--7---------5---------------------0--3--4-|--5---------------------------------------|
pre chorus----------------------------------------------------------------------|----------------------------------------------------------------------|--7-------------------------7-----------------------------------------|--7------------7------------7---------------7-------------------------|--5------------7------------5---------------7-------------------------|------0--2--0--5--0--2--0--------0--2--0----5-----0--2--0--5--0--2--0-|
-------------------------------------------------------------------------|-------------------------------------------------------------------------|--7-------------------------7--------------------------------------------|--7------------7------------7---------------7--------------------------2-|--5------------7------------5---------------7--------------------------2-|------0--2--0--5--0--2--0--------0--2--0----5-----0--2--0--5--0--2--0--0-|
chorus--------------------------------------------------------------------------|--------------------------------------------------------------------------|--9--9--------------------------------------------------------------------|--9--9------7--7------4--5---4--5-----4--7---------------------------7--7-|--7--7------7--7------4--5---4--5-----4--7---------------------------7--7-|------------5--5------2--3---2--3-----2--5---0--2--0--5--0--2--0-----5--5-|
-----------------------------|-----------------------------|-----------------------------|--4--5------4--5--------4--7-|--4--5------4--5--------4--7-|--2--3------2--3--------2--5-|
------------------------------------------|----------------------8--------7----------|------------7---------7--------7----------|--7---------7---------5--------5----------|--7---------5---------------------0--3--4-|--5---------------------------------------|
------------------------------------------|----------------------8--------7----------|------------7---------7--------7----------|--7---------7---------5--------5----------|--7---------5---------------------0--3--4-|--5---------------------------------------|
------------------------------------------|----------------------8--------7----------|------------7---------7--------7----------|--7---------7---------5--------5----------|--7---------5---------------------0--3--4-|--5---------------------------------------|
------------------------------------------|----------------------8--------7----------|------------7---------7--------7----------|--7---------7---------5--------5----------|--7---------5---------------------0--3--4-|--5---------------------------------------|
verse--------------------------------------------------|--------------------------------------------------|--5-------------------------5---------------------|--5-------------------------5---------------------|--3-----------3-------------3-----------3---------|-----0--2--3-----0--2--3-------0--2--3----0--2--3-|
------------------------------------------|----------------------8--------7----------|------------7---------7--------7----------|--7---------7---------5--------5----------|--7---------5---------------------0--3--4-|--5---------------------------------------|
------------------------------------------|----------------------8--------7----------|------------7---------7--------7----------|--7---------7---------5--------5----------|--7---------5---------------------0--3--4-|--5---------------------------------------|
----------------------------------------------------|----------------------------------------------------|--5-------------------------5-----------------------|--5-------------------------5-----------------------|--3-----------3-------------3------------3----------|-----0--2--3-----0--2--3--------0--2--3-----0--2--3-|
------------------------------------------|----------------------8--------7----------|------------7---------7--------7----------|--7---------7---------5--------5----------|--7---------5---------------------0--3--4-|--5---------------------------------------|
------------------------------------------|----------------------8--------7----------|------------7---------7--------7----------|--7---------7---------5--------5----------|--7---------5---------------------0--3--4-|--5---------------------------------------|
pre chorus-----------------------------------------------------------------------|-----------------------------------------------------------------------|--7--------------------------7-----------------------------------------|--7--------------7-----------7---------------7-------------------------|--5--------------7-----------5---------------7-------------------------|-----0--2--0-----5--0--2--0-------0--2--0----5-----0--2--0--5--0--2--0-|
---------------------------------------------------------------|---------------------------------------------------------------|------------------7--------------------------------------------|--7---------------7---------------7--------------------------2-|--7---------------5---------------7--------------------------2-|--5----0--2--0---------0--2--0----5-----0--2--0--5--0--2--0--0-|
chorus------------------------------------------------------------------------|------------------------------------------------------------------------|--9--9------------------------------------------------------------------|--9--9--------7--7-------4--5-----4--5-----4--7-------------------------|--7--7--------7--7-------4--5-----4--5-----4--7-------------------------|--------------5--5-------2--3-----2--3-----2--5-----0--2--0--5--0--2--0-|
--------------------------------------------------------------------|--------------------------------------------------------------------|--------------------------------------------------------------------|--7--7-----4--5------4--5------4--7----------------------------7--7-|--7--7-----4--5------4--5------4--7----------------------------7--7-|--5--5-----2--3------2--3------2--5-----0--2--0--5--0--2--0----5--5-|
----------------------------------------------------|----------------------------------------------------|----------------------------------------------------|--4--5------4--5-------4--7-------------------------|--4--5------4--5-------4--7-------------------------|--2--3------2--3-------2--5-----0--2--0--5--0--2--0-|
-------------------------------------|-------------------------------------|-------------------------------------|--7--7------4--5------4--5------4--7-|--7--7------4--5------4--5------4--7-|--5--5------2--3------2--3------2--5-|
solo- chorus played underneath---------------------------------------------------------|-----------10-------------------10--13^----------10--13^-|---\9--11------11/------\9--11------------\9--11---------|---------------------------------------------------------|---------------------------------------------------------|---------------------------------------------------------|
--------------------------------------------------|----------10---13--12--10--13--12--10--13--12--10-|--\9--11------------------------------------------|--------------------------------------------------|--------------------------------------------------|--------------------------------------------------|
(Chorus)--------------------------------------------------------------|--------------------------------------------------------------|--------------------------------------------------------------|--7--7------4--5-----4--5-----4--7----------------------------|--7--7------4--5-----4--5-----4--7----------------------------|--5--5------2--3-----2--3-----2--5-----0--2--0--5--0--2--0----|--------------------------------------------------------------|--------------------------------------------------------------|--------------------------------------------------------------|--7--7-----4--5------4--5-------4--7--------------------------|--7--7-----4--5------4--5-------4--7--------------------------|--5--5-----2--3------2--3-------2--5-----0--2--0--5--0--2--0--|
--------------------------------------------------------------|--------------------------------------------------------------|--------------------------------------------------------------|--7--7-------4--5------4--5------4--7-------------------------|--7--7-------4--5------4--5------4--7-------------------------|--5--5-------2--3------2--3------2--5-----0--2--0--5--0--2--0-|
-------------------------------------------------------------------|-------------------------------------------------------------------|-------------------------------------------------------------------|--7--7--------4--5--------4--5--------4--7-------------------------|--7--7--------4--5--------4--5--------4--7-------------------------|--5--5--------2--3--------2--3--------2--5-----0--2--0--5--0--2--0-|
----------------------------------------------------------------|----------------------------------------------------------------|----------------------------------------------------------------|--7--7-------4--5-------4--5------4--7--------------------------|--7--7-------4--5-------4--5------4--7--------------------------|--5--5-------2--3-------2--3------2--5------0--2--0--5--0--2--0-|
---------------------------------------------------------------|---------------------------------------------------------------|---------------------------------------------------------------|--7--7------4--5------4--5-----4--7----------------------------|--7--7------4--5------4--5-----4--7----------------------------|--5--5------2--3------2--3-----2--5-----0--2--0--5--0--2--0----|
---------------------------------------------------------------|---------------------------------------------------------------|---------------------------------------------------------------|--7--7-----4--5------4--5-------4--7---------------------------|--7--7-----4--5------4--5-------4--7---------------------------|--5--5-----2--3------2--3-------2--5-----0--2--0--5--0--2--0---|
---------------------------------------------------------------|---------------------------------------------------------------|---------------------------------------------------------------|--7--7------4--5--------4--5------4--7-------------------------|--7--7------4--5--------4--5------4--7-------------------------|--5--5------2--3--------2--3------2--5-----0--2--0--5--0--2--0-|
Thanks, please rate it after you learn it
Tap to rate this tab
 
# A B C D E F G H I J K L M N O P Q R S T U V W X Y Z