Motley Crue - Treat Me Like The Dog I Am tab

treat me like a dog
motley crue

drop d tuning- DGCFAD

/- slide up
\- slide down
x- palm mute
PM- palm mute
b- bend
ph- pinch harmonic~- let ring\/\/\/- pick scrape------------------------------------------------|------------------------------------------------|------------------------------------------------|---------6-----7--7-/-6----------6-----7--7-/-6-|--\2-----4-----5--5-/-4----2-----4-----5--5-/-4-|--\0--x--------------------0--x-----------------|
------------------------------------------------------------|------------------------------------------------------------|------------------------------------------------------------|-------6-----7--7-/-6----x--x--x--x----------6-----7--7-/-6-|--2----4-----5--5-/-4----x--x--x--x----2-----4-----5--5-/-4-|--0-x--------------------x--x--x--x----0--x-----------------|
-------------------------------------------------------------|-------------------------------------------------------------|-------------------------------------------------------------|--------6-----7--7-/-6----------6-----7--7-/-6----x--x--x--x-|--2-----4-----5--5-/-4----2-----4-----5--5-/-4----x--x--x--x-|--0--x--------------------0--x--------------------x--x--x--x-|
-----------------------------------------------|-----------------------------------------------|-----------------------------------------------|--------6-----7--7-/-6----------6-----7--7-/-6-|--2-----4-----5--5-/-4----2-----4-----5--5-/-4-|--0--x--------------------0--x-----------------|
-------------------------------------------------------------|-------------------------------------------------------------|-------------------------------------------------------------|--------6-----7--7-/-6----x--x--x--x----------6-----7--7-/-6-|--2-----4-----5--5-/-4----x--x--x--x----2-----4-----5--5-/-4-|--0--x--------------------x--x--x--x----0--x-----------------|
------------------------------------------------------------|------------------------------------------------------------|------------------------------------------------------------|-------6-----7--7-/-6----------6-----7--7-/-6----x--x--x----|--2----4-----5--5-/-4----2-----4-----5--5-/-4----x--x--x----|--0--x-------------------0--x--------------------x--x--x--\-|
verse-----------------------------------------------------------------|-----------------------------------------------------------------|-----------------------------------------------------------------|--7--7--7--7--7--7--7--7----7--7--7--7--7--7--7--7----7--7--7--7-|--7--7--7--7--7--7--7--7----7--7--7--7--7--7--7--7----7--7--7--7-|--5--5--5--5--5--5--5--5----5--5--5--5--5--5--5--5----5--5--5--5-|
-----------------------------------------------------------------|-----------------------------------------------------------------|-----------------------------------------------------------------|--7--7--7--7----7--7--7--7--7--7--7--7----6--6--6--6--6--6--6--6-|--7--7--7--7----7--7--7--7--7--7--7--7----6--6--6--6--6--6--6--6-|--5--5--5--5----5--5--5--5--5--5--5--5----4--4--4--4--4--4--4--4-|
------------------------------------------|------------------------------------------|------------------------------------------|--6--6--6--6--6--6--6--6----6--6--6--6--\-|--6--6--6--6--6--6--6--6----6--6--6--6--\-|--4--4--4--4--4--4--4--4----4--4--4--4--\-|
chorus------------------------------------------------------------------------|------------------------------------------------------------------------|------------------------------------------------------------------------|---------------------------------------------------2---2--2--2--2--2--2-|--2--2--2--2--2--2--2----4-----4--4--4--4--4--4----0---0--0--0--0--0--0-|--0--0--0--0--0--0--0----2-----2--2--2--2--2--2-------------------------|
-----------------------------------------------|-----------------------------------------------|-----------------------------------------------|--5---5--5--5--5--5--5-------------------------|--3---3--3--3--3--3--3----2---2--2--2--2--2--2-|--------------------------0---0--0--0--0--0--0-|
-----------------------------------------------------------------------|-----------------------------------------------------------------------|-----------------------------------------------------------------------|--------------------------2---2--2--2--2--2--2----5---5--5--5--5--5--5-|--4---4--4--4--4--4--4----0---0--0--0--0--0--0----3---3--3--3--3--3--3-|--2---2--2--2--2--2--2-------------------------------------------------|
-----------------------------------------------|-----------------------------------------------|-----------------------------------------------|--------6-----7--7-/-6----------6-----7--7-/-6-|--2-----4-----5--5-/-4----2-----4-----5--5-/-4-|--0--x--------------------0--x-----------------|
------------------------------------------------------------|------------------------------------------------------------|------------------------------------------------------------|-------6-----7--7-/-6----x--x--x--x----------6-----7--7-/-6-|--2----4-----5--5-/-4----x--x--x--x----2-----4-----5--5-/-4-|--0--x-------------------x--x--x--x----0--x-----------------|
--------------------------------------------------------------|--------------------------------------------------------------|--------------------------------------------------------------|--------6-----7--7-/-6-----------6-----7--7-/-6----x--x--x--x-|--2-----4-----5--5-/-4-----2-----4-----5--5-/-4----x--x--x--x-|--0--x---------------------0--x--------------------x--x--x--x-|
verse-----------------------------------------------------------------|-----------------------------------------------------------------|-----------------------------------------------------------------|--7--7--7--7--7--7--7--7----7--7--7--7--7--7--7--7----7--7--7--7-|--7--7--7--7--7--7--7--7----7--7--7--7--7--7--7--7----7--7--7--7-|--5--5--5--5--5--5--5--5----5--5--5--5--5--5--5--5----5--5--5--5-|
-----------------------------------------------------------------|-----------------------------------------------------------------|-----------------------------------------------------------------|--7--7--7--7----7--7--7--7--7--7--7--7----6--6--6--6--6--6--6--6-|--7--7--7--7----7--7--7--7--7--7--7--7----6--6--6--6--6--6--6--6-|--5--5--5--5----5--5--5--5--5--5--5--5----4--4--4--4--4--4--4--4-|
------------------------------------------|------------------------------------------|------------------------------------------|--6--6--6--6--6--6--6--6----6--6--6--6--\-|--6--6--6--6--6--6--6--6----6--6--6--6--\-|--4--4--4--4--4--4--4--4----4--4--4--4--\-|
chorus--------------------------------------------------------------------------|--------------------------------------------------------------------------|--------------------------------------------------------------------------|---------------------------------------------------2-----2--2--2--2--2--2-|--2--2--2--2--2--2--2----4-----4--4--4--4--4--4----0-----0--0--0--0--0--0-|--0--0--0--0--0--0--0----2-----2--2--2--2--2--2---------------------------|
---------------------------------------------------|---------------------------------------------------|---------------------------------------------------|--5-----5--5--5--5--5--5---------------------------|--3-----3--3--3--3--3--3----2-----2--2--2--2--2--2-|----------------------------0-----0--0--0--0--0--0-|
----------------------------------------------------------------------------|----------------------------------------------------------------------------|----------------------------------------------------------------------------|-----------------------------2-----2--2--2--2--2--2----5---5--5--5--5--5--5-|--4---4--4--4--4--4--4--4----0-----0--0--0--0--0--0----3---3--3--3--3--3--3-|--2---2--2--2--2--2--2--2---------------------------------------------------|
---------------------------------------------------|---------------------------------------------------|---------------------------------------------------|---------------------------------------------------|--2-----2--2--2--2--2--2----4-----4--4--4--4--4--4-|--0-----0--0--0--0--0--0----2-----2--2--2--2--2--2-|
-------------------------------------------------------------------------|-------------------------------------------------------------------------|-------------------------------------------------------------------------|--2--2--2--2--2--2--2----5----5--5--5--5--5--5---------------------------|--0--0--0--0--0--0--0----3----3--3--3--3--3--3----2-----2--2--2--2--2--2-|--------------------------------------------------0-----0--0--0--0--0--0-|
---------------------------------------------------|---------------------------------------------------|---------------------------------------------------|----------------------------2-----2--2--2--2--2--2-|--4-----4--4--4--4--4--4----0-----0--0--0--0--0--0-|--2-----2--2--2--2--2--2---------------------------|
---------------------------------------------------|---------------------------------------------------|---------------------------------------------------|--5--5--5--5--5--5--5----------------7-------------|--3--3--3--3--3--3--3----2-----------5-----------7-|-------------------------0-----------------------5-|
-----------------------------------------------------|-----------------------------------------------------|-----------------------------------------------------|---------------------------7-------------------------|--9------------2-----------5-----------7-----------9-|--7------------0-----------------------5-----------7-|
------------------------------------------------------------|---------------------5----------------5----------------5----|------------------4-----4----------4-----4----------4-----4-|-----------------------------0------------------------------|--\/\/\/--------------------------------------0-------------|-----------0------------------------------------------------|
-------------------------------------------------------------------|-----------5----------------5----------------5----------------5----|--------4-----4----------4-----4----------4-----4----------4-----4-|------------------------------------0------------------------------|--2--------------------------------------------------0-------------|-------------------0-----------------------------------------------|
--------------------------------------------------|-----------5----------------5----------------5----|--------4-----4----------4-----4----------4-----4-|------------------------------------0-------------|--2-----------------------------------------------|-------------------0------------------------------|
---------------------------------------------------------------------------|-------5---------------5----------------5----------------5------------5----|----4-----4---------4-----4----------4-----4----------4-----4------4-----4-|-----------------------------------------------0---------------------------|--0-----------2------------------------------------------------0-----------|-------------------------------0-------------------------------------------|
---------------|----------5----|-------4-----4-|---------------|--2------------|---------------|
solo----------------------------------------------------------------------|-------9---9-10-9-10-12-10-12-10-12-13-12-13-12-13-12-13---------9----|--9-11---9------------------------------------------------9--11-----9-|----------------------------------------------------------------------|----------------------------------------------------------------------|----------------------------------------------------------------------|
---------------------------------------------------------------|--9--10--9--10--12--10--12--10--12--13--12--13--12--13--12--13-|---------------------------------------------------------------|---------------------------------------------------------------|---------------------------------------------------------------|---------------------------------------------------------------|
----------------------------------------------|--------5~---------------7~-------------8~----|--4--6------6------4--6------8----4--6------9-|----------------------------------------------|----------------------------------------------|----------------------------------------------|
----------------7--------------------------------------|--8--10--8--10-----8------------5~---------------7~----|-------------------------4--6-------6-----4--6-------8-|-------------------------------------------------------|-------------------------------------------------------|-------------------------------------------------------|
----------------12---11---10---9----8----7---6--|-------8~-------14b--13b--12b--11b--10b--9b--8b-|--4--6-----9------------------------------------|------------------------------------------------|------------------------------------------------|------------------------------------------------|
----------------------------------------------------------------------|----------------------------------------------------------------------|----------------------------------------------------------------------|--------6--7--7-/-6-----------6-----7--7-/-6-----------6-----7--7-/-6-|--2-----4--5--5-/-4-----2-----4-----5--5-/-4-----2-----4-----5--5-/-4-|--0--x------------------0--x---------------------0--x-----------------|
-------------------------------------------------------------|-------------------------------------------------------------|-------------------------------------------------------------|--x--x--x--x----------6-----7--7-/-6----------6-----7--7-/-6-|--x--x--x--x----2-----4-----5--5-/-4----2-----4-----5--5-/-4-|--x--x--x--x----0--x--------------------0--x-----------------|
PM----------------------------|----------------------------|----------------------------|--------6-----7--7-/-6----2-|--2-----4-----5--5-/-4----2-|--0--x--------------------0-|
chorus------------------------------------------------------------------------|------------------------------------------------------------------------|------------------------------------------------------------------------|-------------------------------------------------2-----2--2--2--2--2--2-|--2---2--2--2--2--2----4-----4--4--4--4--4--4----0-----0--0--0--0--0--0-|--0---0--0--0--0--0----2-----2--2--2--2--2--2---------------------------|
---------------------------------------------------|---------------------------------------------------|---------------------------------------------------|--5-----5--5--5--5--5--5---------------------------|--3-----3--3--3--3--3--3----2-----2--2--2--2--2--2-|----------------------------0-----0--0--0--0--0--0-|
-----------------------------------------------------------------------|-----------------------------------------------------------------------|-----------------------------------------------------------------------|--------------------------2---2--2--2--2--2--2----5---5--5--5--5--5--5-|--4---4--4--4--4--4--4----0---0--0--0--0--0--0----3---3--3--3--3--3--3-|--2---2--2--2--2--2--2-------------------------------------------------|
---------------------------------------------------|---------------------------------------------------|---------------------------------------------------|---------------------------------------------------|--2-----2--2--2--2--2--2----4-----4--4--4--4--4--4-|--0-----0--0--0--0--0--0----2-----2--2--2--2--2--2-|
-------------------------------------------|-------------------------------------------|-------------------------------------------|--2--2--2--2--2--2----5---5--5--5--5--5--5-|--2--0--0--0--0--0----3---3--3--3--3--3--3-|-------------------------------------------|
outro------------------------------------------------------------------------|--------5----------------------------------5----------------------------|--4--6-----6--------------------------4--6-----6------------------------|---------------------------------------------------5---5--5--5--5--5--5-|----------------4---4--4--4--4--4--4---------------3---3--3--3--3--3--3-|----------------2---2--2--2--2--2--2------------------------------------|
-----------------------------------------------|-----------------------------------------------|-----------------------------------------------|-----------------------------------------------|--2---2--2--2--2--2--2----4---4--4--4--4--4--4-|--0---0--0--0--0--0--0----2---2--2--2--2--2--2-|
-----------------------------------------------------|---------5-------------------------------------5~----|--4---6-----6----------------------------4--6------6-|-----------------5---5--5--5--5--5--5----------------|-----------------3---3--3--3--3--3--3----------------|-----------------------------------------------------|
-------------------------------------------------------7----|--------7~-------------8~---------10--------10--8--10-----8-|--4--6------8----4--6--------9------------------------------|------------------------------------------------------------|------------------------------------------------------------|------------------------------------------------------------|
----------------------------------------------|--------5~---------------7~-------------8~----|--4--6------6------4--6------8----4--6------9-|----------------------------------------------|----------------------------------------------|----------------------------------------------|
ph ph ph ph ph-----------------------------|--8--8-----8-----8--8--7---6-|-----------------------------|-----------------------------|-----------------------------|-----------------------------|
Tap to rate this tab
 
# A B C D E F G H I J K L M N O P Q R S T U V W X Y Z