Motograter - Collapse tab

-------------------------------------------------------------------------------
			     Collapse - Motograter
-------------------------------------------------------------------------------
Tabbed by: metalmonkey147
Email:

Tuning: Drop C

 Super easy song, but still f'in awesome, especsially the drums

|---------------------------------||---------------------------------||---------------------------------||-2-2---2-2-2---2-2-2---2-2-2-3---| x4|-2-2---2-2-2---2-2-2---2-2-2-3---||-2-2---2-2-2---2-2-2---2-2-2-3---|
(pause for mini drum solo)
|---------------------------------||---------------------------------||---------------------------------||-2-2---2-2-2---2-2-2---2-2-2-3---| x8|-2-2---2-2-2---2-2-2---2-2-2-3---||-2-2---2-2-2---2-2-2---2-2-2-3---|
Only do slight palm mutes here to get that rly deep sound
|---------------------------------------------------------------------------||---------------------------------------------------------------------------||---------------------------------------------------------------------------||-10---10---10-----10\7---7-7---7---7---------------------------------------| x3|-8----8----8------8-\5---5-5---5---5---2---2---3p2---2-2---2-2---3p2-2-2---||-8----8----8------8-\5---5-5---5---5---2---2---3p2---2-2---2-2---3p2-2-2---| . . . . . . . .
|---------------------------------------------------------------------------||---------------------------------------------------------------------------||---------------------------------------------------------------------------||-10---10---10-----10\7---7-7---7---7-----------------(drums)---------------||-8----8----8------8-\5---5-5---5---5---2-----------------------------------||-8----8----8------8-\5---5-5---5---5---2-----------------------------------| .
|---------------------------------||---------------------------------||---------------------------------||-2-2---2-2-2---2-2-2---2-2-2-3---| x4|-2-2---2-2-2---2-2-2---2-2-2-3---||-2-2---2-2-2---2-2-2---2-2-2-3---|
(pause for mini drum solo)
|---------------------------------||---------------------------------||---------------------------------||-2-2---2-2-2---2-2-2---2-2-2-3---| x8|-2-2---2-2-2---2-2-2---2-2-2-3---||-2-2---2-2-2---2-2-2---2-2-2-3---|
Again, only slight palm mutes
|---------------------------------------------------------------------------||---------------------------------------------------------------------------||---------------------------------------------------------------------------||-10---10---10-----10\7---7-7---7---7---------------------------------------| x3|-8----8----8------8-\5---5-5---5---5---2---2---3p2---2-2---2-2---3p2-2-2---||-8----8----8------8-\5---5-5---5---5---2---2---3p2---2-2---2-2---3p2-2-2---| . . . . . . . .
|---------------------------------------------------------------------------||---------------------------------------------------------------------------||---------------------------------------------------------------------------||-10---10---10-----10\7---7-7---7---7-----------------(drums)---------------||-8----8----8------8-\5---5-5---5---5---2-----------------------------------||-8----8----8------8-\5---5-5---5---5---2-----------------------------------| .
|-----------------------------------||-----------------------------------||-----------------------------------||-----------------------------------| x4|-3-2-2-2-3-2-2-2-3-2-2-2-888-8-8---||-3-2-2-2-3-2-2-2-3-2-2-2-888-8-8---| ... . .
|-----------------------------------------------||-----------------------------------------------||-----------------------------------------------||-10999991099999109999910999991010101010101010--| x4|-----------------------------------------------||-----------------------------------------------| ............................................
|---------------------------------------------------------------------------||---------------------------------------------------------------------------||---------------------------------------------------------------------------||-10---10---10-----10\7---7-7---7---7---------------------------------------| x4|-8----8----8------8-\5---5-5---5---5---2---2---3p2---2-2---2-2---3p2-2-2---||-8----8----8------8-\5---5-5---5---5---2---2---3p2---2-2---2-2---3p2-2-2---| . . . . . . . .
|------------------------------------------------------------------------------||------------------------------------------------------------------------------||------------------------------------------------------------------------------||---(drums)---------------------------------------------------(drums)----------||-------------/14\\---2---2---3p2---2-2---2-2---3p2-2-2------------------/14\\-||-------------/14\\---2---2---3p2---2-2---2-2---3p2-2-2------------------/14\\-| . . . . . . . .
|-------------------------------------||-------------------------------------||-------------------------------------||-------------------------------------||-2---2---3p2---2-2---2-2---3p2-2-2---||-2---2---3p2---2-2---2-2---3p2-2-2---| . . . . . . . .
|--------------------------------------------||--------------------------------------------||--------------------------------------------||--------------------------------------------||-2---2---3p2---2-2---2-2---3p2-2-2---2-2----||-2---2---3p2---2-2---2-2---3p2-2-2---2-2----| . . . . . . . . . .
************************************ | . palm mute | / slide up | \ slide down | h hammer-on | p pull-off | ~ vibrato | * harmonic | x Mute note | b Bend | pb Pre-bend | br Bend release | pbr Pre-bend release | brb Bend release bend ************************************
Tap to rate this tab
 
# A B C D E F G H I J K L M N O P Q R S T U V W X Y Z