Motorhead - Damage Case tab

Band:  Motorhead
Album: Overkill
Song:  Damage Case

Copyright (c)  (Bronze) (1979)
Version 1.0 - (21/01/07)

Transcribed By: Steve
Email:          stephen.elvidge1@ntlworld.com


.  - palm mute           /  - slide up to
\  - slide down to       ~  - vibrato
h  - hammer on           b  - Bend
p  - pull off            Suffixes for bend
t  - tap                 f  - full bend    h - half bend
ph - pinched harmonic    q  - quarter bend t - tap bend
*  - see comment         ^  - Hold bend    r release bend
x  - Stuccatto           ~  - vibrato bend
,  - slight palm mute    () - ghost note, sustained note
"  - tremolo note        <> - harmonic
pb - pre bend

Tuning Eb Ab Db Gb Bb Eb




 Intro

|----------------------------||---12----12----12----14-----||---12----12----12----14-----||---12----12----12----14-----||----------------------------||-0-----0-----0-----0--------|
|----------------------------||---12----12----12----14-\---||---12----12----12----14-\---||---12----12----12----14-\---||----------------------------||-0-----0-----0-----0--------|
Main Riff
|---------------------------------||------------------------12-12-\--||------------------------12-12-\--||------------------------12-12-\--||-7--7p5-7--7p5-7--7p5-7----------||-0--0-0-0--0-0-0--0-0-0----------| Rpt 7 X
|----------------------------||----------------------------||----------------------------||----------------------------||-7--7p5-7--7p5-7--7p5-7--x\-||-0--0-0-0--0-0-0--0-0-0--x\-|
Bridge and Chorus
|-----------------------------||-----------------------------||--------------------7--7-7---||-9-9--(9)--\5--(5)--7--7-7---||-9-9--(9)--\5--(5)--5--5-5---||-7-7--(7)--\3--(3)--5--5-5---| Rpt 3 X
PM PM PM|--------------------------------------------------------------------||----------------------------------------------------------------12\-||----------------------------------------------------------------12\-||-2--------------------\9-9-9-9-\7-7-7-7-2---0---2---0-2-3/4--44-12\-||-2--------------------\9-9-9-9-\7-7-7-7-2---0---2---0-0-1/2--22-----||-0--------------------\7-7-7-7-\5-5-5-5---0---0---0-----------------|
Rpt Verse and chorus
Guitar solo ~~~~~~~ h h h|-----------------------------------------------------------------||-15fb-15fb--------15fbrp12-15p12-15p12-------------------14b-14b-||---------------------------------------14-12-14p12----12-14b-14b-||---------------------------------------------------14------------||-----------------------------------------------------------------||-----------------------------------------------------------------|
~~~~~~ h|--------------------------------------------------------------||-12------------------14b-r14----------14b-r14-----------------||-12------14p12----12-14b-r14-14p12----14b-r14-12-14p12----12--||---------------14------------------14------------------14-----||--------------------------------------------------------------||--------------------------------------------------------------|
~~~~~~~~ h h ~~|-------------------------------12----------------------------------||----------------------12-15p12----15-12-12-15p12----12--15fb---15--||-14b-14b-14b-14b---------------------------------14----------------||-------------------------------------------------------------------||-------------------------------------------------------------------||-------------------------------------------------------------------|
h ~~~~~|-------------------------------------------------------------||-12-15p12----12----------------------------------------------||----------14----14p12-14----14br14-12-14-12----12-14-14b-----||--------------------------------------------14---------------||-------------------------------------------------------------||-------------------------------------------------------------|
h h ~~~|------------------------------------------------------------------||------------------------------------------------14b-r-------------||-14b-r12-14p12----12-14-14b-12-14p12----12------14b-r12-14p12-----||---------------14--------------------14----14-----------------14--||------------------------------------------------------------------||------------------------------------------------------------------|
|---------------------------------------------------------||-------1414b-r---------------------12----12----12----12--||-12-14-1414b-r12-14p12----12-14-14b---14b---14b---14b----||-----------------------14--------------------------------||---------------------------------------------------------||---------------------------------------------------------|
|--------------------------------------------------||----12----12----12----12----12----12----12----12--||-14b---14b---14b---14b---14b---14b---14b---14b----||--------------------------------------------------||--------------------------------------------------||--------------------------------------------------|
|--------------------------------------------------||----12----12----12----12----12----12----12----12--||-14b---14b---14b---14b---14b---14b---14b---14b----||--------------------------------------------------||--------------------------------------------------||--------------------------------------------------|
|-------------------------------------------||----12----12----12----12-------------------||-14b---14b---14b---14b---------------------||-------------------------------------------||----------------------------bass fill------||-------------------------------------------|
|----------------------------------||----------------------------------||-9b--r9p7---7-----9b--r9p7---7----||----------9---9------------9---9--||----------------------------------||----------------------------------|
|----------------------||----------------------||-------------------2--||-\9-9-9-9-\7-7-7-7-2--||-\9-9-9-9-\7-7-7-7----||-\7-7-7-7-\5-5-5-5----|
3rd verse
|--------------------------||--------------------------||-------------------2--2---||-------------------2--2---||-4---4--4--4--4--4--------||-2(0)2--2--2--2--2--------| Rpt 4 X
|-----------------------||-----------------------||-----------------------||-----------------------||-4---4--4--4--4--4-x\--||-2(0)2--2--2--2--2-x\--|
Bridge and chorus
|-------------------------------||-------------------------------||----------------------9--9-9---||-11-11-(11)--\7--(7)--9--9-9---||-11-11-(11)--\7--(7)--7--7-7---||-9--9--(9)---\5--(5)--7--7-7---| Rpt 3 X
PM PM PM|-------------------------------------------------------------------||-------------------------------------------------------------------||----------------------------------------------------------------2--||-4--------------------\11111111\9-9-9-9-4---2---4---2-4/5/6-----2--||-4--------------------\11111111\9-9-9-9-4---2---4---2-2/3/4--------||-2--------------------\9-9-9-9-\7-7-7-7---2---2---2----------00----|
Outro solo
~~~~~~~~~~~ ~~~~~ h|-------------------------------------------------------------------||-------------------------------------------------------------------||-4fb--4fb---------4fb4p2--4p2---2---2---2-----4p2---2---4fb-4b-2-4-||------------------------------4---4b--4b----------4---4------------||-------------------------------------------------------------------||-------------------------------------------------------------------|
~~~~ h ~~~ h ~~~~~~~~~~~~|-------------------------------------------------7-----------||----------------------------------5-7p5----5-7b----7b---7b---||---2---4fb-4--2-4p2---2--------/6-------6--------------------||-4------------------4---4---\--------------------------------||-------------------------------------------------------------||-------------------------------------------------------------|
~~ h ~~~~~~|---------------------------------------------------------------||---5-7b--r5-7p5---5---5-7---------5---5-7-12b--r12-10-12p10----||-6--------------6---6-----------6---6-----------------------11-||---------------------------------------------------------------||---------------------------------------------------------------||---------------------------------------------------------------|
~~~~~~~~~~~ ~~~|----------12----12-------------------------------------------------||-10-12-12b---12b---12fb-12fb-12fb-------r12-10-12p10-----10-12-10--||-----------------------------------------------------11------------||-------------------------------------------------------------------||-------------------------------------------------------------------||-------------------------------------------------------------------|to fade
END
Tap to rate this tab
 
# A B C D E F G H I J K L M N O P Q R S T U V W X Y Z