Motorhead - Bomber tab version 3

Banda: Motorhead
Cancion: Bomber
Album: Bomber

Tab por: Gaston Alejandro T.G.(Eddy S)
Email: narutokiubi-@hotmail.com
Tuning:Eb

(intro parte1)

eb||------------------------|---------------------------|Bb||-------9----7-----------|----------9----7-----------|Gb||-------9----7h8p7h8p7h8-|----------9----7h8p7h8p7h8-|Db||--9---------------------|--9----9-------------------|Ab||--9---------------------|--9----9-------------------|Eb||--7---------------------|--7----7-------------------|
---------------------------|---------------------------|----------7----5-----------|----------7----5-----------|----------7----5h6p5h6p5h6-|----------7----5h6p5h6p5h6-|--7----7-------------------|--7----7-------------------|--7----7-------------------|--7----7-------------------|--5----5-------------------|--5----5-------------------|
(intro parte 2)x3
---------------------------|---------------------------|----------9----7-----------|----------9----7-----------|----------9----7h8p7h8p7h8-|----------9----7h8p7h8p7h8-|--9----9-------------------|--9----9-------------------|--9----9-------------------|--9----9-------------------|--7----7-------------------|--7----7-------------------|
---------------------------|---------------------------|----------7----5-----------|----------7----5-----------|----------7----5h6p5h6p5h6-|----------7----5h6p5h6p5h6-|--7----7-------------------|--7----7-------------------|--7----7-------------------|--7----7-------------------|--5----5-------------------|--5----5-------------------|
Riff 2 x4
-------------------------|--------------------------|-------------------------|--------------------------|-------------------------|--------------------------|--9----9--------9--------|-----9-----------9--------|--7----7--7--7--7--7--7--|--7--7--7--7--7--7--7--7--|-------------------------|--------------------------|
(verse) x2
---------------------------|---------------------------|----------9----7-----------|----------9----7-----------|----------9----7h8p7h8p7h8-|----------9----7h8p7h8p7h8-|--9----9-------------------|--9----9-------------------|--9----9-------------------|--9----9-------------------|--7----7-------------------|--7----7-------------------|
---------------------------|---------------------------|----------9----7-----------|----------9----7-----------|----------9----7h8p7h8p7h8-|----------9----7h8p7h8p7h8-|--9----9-------------------|--9----9-------------------|--9----9-------------------|--9----9-------------------|--7----7-------------------|--7----7-------------------|
---------------------------|---------------------------|----------7----5-----------|----------7----5-----------|----------7----5h6p5h6p5h6-|----------7----5h6p5h6p5h6-|--7----7-------------------|--7----7-------------------|--7----7-------------------|--7----7-------------------|--5----5-------------------|--5----5-------------------|
---------------------------|---------------------------|----------7----5-----------|----------7----5-----------|----------7----5h6p5h6p5h6-|----------7----5h6p5h6p5h6-|--7----7-------------------|--7----7-------------------|--7----7-------------------|--7----7-------------------|--5----5-------------------|--5----5-------------------|
(chorus)
-----------------------|-------------------------|-----------------------|-----------------------|-------------------------|-----------------------|-----------------------|-------------------------|-----------------------|--9---9--9--9--9--9--9-|--9--9--9--9--9--9--9--9-|--7--7--7--7--7--7--7--|--7---7--7--7--7--7--7-|--7--7--7--7--7--7--7--7-|--5--5--5--5--5--5--5--|-----------------------|-------------------------|-----------------------|
------------------------|------------------------|-------------------------|------------------------|------------------------|-------------------------|------------------------|------------------------|-------------------------|-7--7--7--7--7--7--7--7-|-9--.9--9--9--9--9--9---|--9--9--9--9--9--9--9--9-|-5--5--5--5--5--5--5--5-|-7---7--7--7--7--7--7---|--7--7--7--7--7--7--7--7-|------------------------|------------------------|-------------------------|
------------------------|------------------------|------------------------|------------------------|------------------------|------------------------|--5---5--5--5--5--5--5--|--7---7--7--7--7--7--7--|--3---3--3--3--3--3--3--|--5---5--5--5--5--5--5--|------------------------|------------------------|
(verse) x2
---------------------------|---------------------------|----------9----7-----------|----------9----7-----------|----------9----7h8p7h8p7h8-|----------9----7h8p7h8p7h8-|--9----9-------------------|--9----9-------------------|--9----9-------------------|--9----9-------------------|--7----7-------------------|--7----7-------------------|
---------------------------|---------------------------|----------9----7-----------|----------9----7-----------|----------9----7h8p7h8p7h8-|----------9----7h8p7h8p7h8-|--9----9-------------------|--9----9-------------------|--9----9-------------------|--9----9-------------------|--7----7-------------------|--7----7-------------------|
---------------------------|---------------------------|----------7----5-----------|----------7----5-----------|----------7----5h6p5h6p5h6-|----------7----5h6p5h6p5h6-|--7----7-------------------|--7----7-------------------|--7----7-------------------|--7----7-------------------|--5----5-------------------|--5----5-------------------|
---------------------------|---------------------------|----------7----5-----------|----------7----5-----------|----------7----5h6p5h6p5h6-|----------7----5h6p5h6p5h6-|--7----7-------------------|--7----7-------------------|--7----7-------------------|--7----7-------------------|--5----5-------------------|--5----5-------------------|
(chorus)
-----------------------|-------------------------|-----------------------|-----------------------|-------------------------|-----------------------|-----------------------|-------------------------|-----------------------|--9---9--9--9--9--9--9-|--9--9--9--9--9--9--9--9-|--7--7--7--7--7--7--7--|--7---7--7--7--7--7--7-|--7--7--7--7--7--7--7--7-|--5--5--5--5--5--5--5--|-----------------------|-------------------------|-----------------------|
------------------------|------------------------|-------------------------|------------------------|------------------------|-------------------------|------------------------|------------------------|-------------------------|-7--7--7--7--7--7--7--7-|-9--.9--9--9--9--9--9---|--9--9--9--9--9--9--9--9-|-5--5--5--5--5--5--5--5-|-7---7--7--7--7--7--7---|--7--7--7--7--7--7--7--7-|------------------------|------------------------|-------------------------|
------------------------|------------------------|------------------------|------------------------|------------------------|------------------------|--5---5--5--5--5--5--5--|--7---7--7--7--7--7--7--|--3---3--3--3--3--3--3--|--5---5--5--5--5--5--5--|------------------------|------------------------|
(Estribillo o Chorus 2)
-----------------------------------------------|------------------------|-----------------------------------------------|------------------------|--16-16-16-16-16-16-16-16-16-16-16-16-16-16-16-|--14-14-14-14-14-14-14--|--16-16-16-16-16-16-16-16-16-16-16-16-16-16-16-|--14-14-14-14-14-14-14--|--14-14-14-14-14-14-14-14-14-14-14-14-14-14-14-|--12-12-12-12-12-12-12--|-----------------------------------------------|------------------------|
-------------------------------------------------------------------------|-------------------------------------------------------------------------|14-14-14-14-14-14-14-(14)-/-16-16-16-16-16-16-16-16-16-16-16-16-16-16-16-|14-14-14-14-14-14-14-(14)-/-16-16-16-16-16-16-16-16-16-16-16-16-16-16-16-|12-12-12-12-12-12-12-(12)-/-14-14-14-14-14-14-14-14-14-14-14-14-14-14-14-|-------------------------------------------------------------------------|
--------------------------------------------|--------------------------------------------|-14-14-14-14-14-14-14-14-14-14-14-14-14-14--|-14-14-14-14-14-14-14-14-14-14-14-14-14-14--|-12-12-12-12-12-12-12-12-12-12-12-12-12-12--|--------------------------------------------|
Solo Guitar
----------------------------------------------------------------------|----------------------------------------------------------------------|------------------------------------------------15-------15--------15-|-14(bh)-12----12-14~-14(bh)--12----12-14~--14(BR)---14(br)---14(br)---|-----------14-------------------14------------------------------------|----------------------------------------------------------------------|
-----------------------------------------------------------------------------|-----------------------------------------------------------------------------|-14-12--12-14(B1)-12---12-12-15-----15-----15--------------------------------|------14------------14-------14(B2)-14(B2)-14(B2)-14(B1)-12---12-14-14-14-12-|------------------------------------------------------------14---------------|-----------------------------------------------------------------------------|
-------------------------------------------------------------------------------------|-------------------------------------------------------------------------------------|-------------------------------------------------------------------------------------|-14(bh)-12--12--14(bh)-12--12-14(bh)-12--12-14(bh)-12--12-14(bf)-12~-12~-12~-12~-12~-|----------14-------------14------------14------------14----------12~-12~-12~-12~-12~-|-------------------------------------------------------------------------------------|
verse) x2
---------------------------|---------------------------|----------9----7-----------|----------9----7-----------|----------9----7h8p7h8p7h8-|----------9----7h8p7h8p7h8-|--9----9-------------------|--9----9-------------------|--9----9-------------------|--9----9-------------------|--7----7-------------------|--7----7-------------------|
---------------------------|---------------------------|----------9----7-----------|----------9----7-----------|----------9----7h8p7h8p7h8-|----------9----7h8p7h8p7h8-|--9----9-------------------|--9----9-------------------|--9----9-------------------|--9----9-------------------|--7----7-------------------|--7----7-------------------|
---------------------------|---------------------------|----------7----5-----------|----------7----5-----------|----------7----5h6p5h6p5h6-|----------7----5h6p5h6p5h6-|--7----7-------------------|--7----7-------------------|--7----7-------------------|--7----7-------------------|--5----5-------------------|--5----5-------------------|
---------------------------|---------------------------|----------7----5-----------|----------7----5-----------|----------7----5h6p5h6p5h6-|----------7----5h6p5h6p5h6-|--7----7-------------------|--7----7-------------------|--7----7-------------------|--7----7-------------------|--5----5-------------------|--5----5-------------------|
(chorus)
-----------------------|-------------------------|-----------------------|-----------------------|-------------------------|-----------------------|-----------------------|-------------------------|-----------------------|--9---9--9--9--9--9--9-|--9--9--9--9--9--9--9--9-|--7--7--7--7--7--7--7--|--7---7--7--7--7--7--7-|--7--7--7--7--7--7--7--7-|--5--5--5--5--5--5--5--|-----------------------|-------------------------|-----------------------|
------------------------|------------------------|-------------------------|------------------------|------------------------|-------------------------|------------------------|------------------------|-------------------------|-7--7--7--7--7--7--7--7-|-9--.9--9--9--9--9--9---|--9--9--9--9--9--9--9--9-|-5--5--5--5--5--5--5--5-|-7---7--7--7--7--7--7---|--7--7--7--7--7--7--7--7-|------------------------|------------------------|-------------------------|
------------------------|------------------------|------------------------|------------------------|------------------------|------------------------|--5---5--5--5--5--5--5--|--7---7--7--7--7--7--7--|--3---3--3--3--3--3--3--|--5---5--5--5--5--5--5--|------------------------|------------------------|
intro parte1)
eb||------------------------|---------------------------|Bb||-------9----7-----------|----------9----7-----------|Gb||-------9----7h8p7h8p7h8-|----------9----7h8p7h8p7h8-|Db||--9---------------------|--9----9-------------------|Ab||--9---------------------|--9----9-------------------|Eb||--7---------------------|--7----7-------------------|
---------------------------|---------------------------|----------7----5-----------|----------7----5-----------|----------7----5h6p5h6p5h6-|----------7----5h6p5h6p5h6-|--7----7-------------------|--7----7-------------------|--7----7-------------------|--7----7-------------------|--5----5-------------------|--5----5-------------------|
(intro parte 2) Whit (estribillo o chorus 2) *Hasta Terminar* *fade out* Tablatura Leyenda (Tablature Legend) ---------------- bh-Bend half bf-Bend Full br-Bend then release L - tied note x - dead note g - grace note (n) - ghost note > - accentuded note NH - natural harmonic AH - artificial harmonic TH - tapped harmonic SH - semi harmonic PH - pitch harmonic h - hammer on p - pull off b - bend br - bendRelease pb - preBend pbr - preBendRelease brb - bendReleaseBend \n/ - tremolo bar dip \n - tremolo bar dive -/n - tremolo bar Release up /n\ - tremolo bar inverted dip /n - tremolo bar return -\n - tremolo bar Release down S - shift slide s - legato slide / - slide into from below or out of upwards \ - slide into from above or out of downwards ~ - vibrato W - wide vibrato tr - trill TP - tremolo picking T - tapping S - slap P - pop < - fade in ^ - brush up v - brush down
Tap to rate this tab
 
# A B C D E F G H I J K L M N O P Q R S T U V W X Y Z