Motorhead - In The Year Of The Wolf tab

Artist: Motorhead
Song: In the Year of the Wolf
Album: Inferno
Tabbed By: Menno Roymans (the doctor)

Tuning: Drop Db (Eb tuning, lower Eb down 2 steps)


Riff one:

-------------------------------------------|-------------------------------------------|-------------------------------------------|-0-x-3--4-3-0-x-3--4-3-0-x-3--4-3-0-x--4-3-|-0-x-3--4-3-0-x-3--4-3-0-x-3--4-3-0-x--4-3-|-0-x-3--4-3-0-x-3--4-3-0-x-3--4-3-0-x--4-3-|
play four times (last 2 times palm mute) Riff two:
---------------------|---------------------|-7-7--5--3-3---------|-7-7--5--3-3--5--6-5-|-5-5--3--1-1--5--6-5-|--------------5--6-5-|
Then play: 1x Riff one (palm mute) Riff three:
-------------------------------|-------------------------------|-------------------------------|-7--7--7-8-7-7--7\5-5--3-3-5-5-|-7--7--7-8-7-7--7\5-5--3-3-5-5-|-7777--7-8-7-7--7\5-5--3-3-5-5-| ..
play two times Riff four:
----------------------|----------------------|---------555----------|-000-333-555-55555-33-|-000-333-333-55555-33-|-000-333-----55555-33-| ... ...
---------------------|---------------------|---------555555-666--|-000-333-555555-666--|-000-333-333333-444--|-000-333-------------|
play four times Then play: 3x Riff one (last 2 times palm mute) 1x Riff two 1x Riff one (palm mute) 2x Riff three 4x Riff four Under solo play:
-----------------------------------------|-----------------------------------------|--------------------------------5-5--5-5-|-2-2--0-2-2--0-2-2--0-2-2-0-2-0-5-5--5-5-|-2-2--0-2-2--0-2-2--0-2-2-0-2-0-3-3--3-3-|-2-2--0-2-2--0-2-2--0-2-2-0-2-0----------|
-----------|-----------|-----------|-03-3--3-3-|-03-3--3-3-|-03-3--3-3-|
play four times Then play: 3x Riff one (last 2 times palm mute) 1x Riff two 1x Riff one (palm mute) 2x Riff three 4x Riff four end with:
-------------------------|-------------------------|-------------------------|-0-x-3--4-3-0-x-3--4-3-0-|-0-x-3--4-3-0-x-3--4-3-0-|-0-x-3--4-3-0-x-3--4-3-0-|
Have fun, for comments mail to mennodeman@hotmail.com
Tap to rate this tab
 
# A B C D E F G H I J K L M N O P Q R S T U V W X Y Z