Motorhead - Lost In The Ozone tab

Chords used


Em D C cadd9 Am G B Bb F#|--0-----2-----0-----0-----0-----3-----2-----1-----2-----------||--0-----3-----1-----3-----1-----0-----4-----3-----2-----------||--0-----2-----0-----0-----2-----0-----4-----3-----3-----------||--2-----0-----2-----2-----2-----0-----4-----3-----4-----------||--2-----------3-----3-----0-----2-----2-----1-----4-----------||--0-----------------------3-----2-----------------2-----------|
Riff: Em D Em D Em D C Am Em C Cadd9 I am a drifter on a hungry empty sea Em C Cadd9 There is no one on earth to rescue me Em C Cadd9 The winter storms they freeze me, summer burned alive Em C I can?t remember when another soul passed by (play riff again) Em C Cadd9 Marooned and stranded, on the Islands of the ***ed Em C Cadd9 There is no one on earth to take my hand Em C Cadd9 There is no voice to speak, no soul for company Em C The sun goes down like blood into the Western Sea G B Alone and dying, and a thousand miles from home C D I know I never was so broken and alone, G B I searched the sky for God, shivered to the bone C D Em Drowned in sorrow, Lost in the Ozone D B No hand for me, abandon me Bb G F# Wash over me, watch over me, drowned forever SOLO (actually a bass solo but I play it for guitar)
|--0-----0---3---5---7---5---3---353---0------------||--------------------------------------------3------||---------------------------------------------------||---------------------------------------------------||---------------------------------------------------||---------------------------------------------------|
|---------------------------------0---3---5---7-----||--1------1-------------------3---------------------||---------------------------------------------------||---------------------------------------------------||---------------------------------------------------||---------------------------------------------------|
|--12---10-------10--11--12-----10------------------||------------12-----------------------12----10------||---------------------------------------------------||---------------------------------------------------||---------------------------------------------------||---------------------------------------------------|
|---------------------------------------------------||--------10b11b10---------------------------10---12-||--12---------------12------------------------------||---------------------------------------------------||---------------------------------------------------||---------------------------------------------------|
|--10-------------12------------10--12----12---14---||-------10---12--------10--12-----------------------||---------------------------------------------------||---------------------------------------------------||---------------------------------------------------||---------------------------------------------------|
|--14---15---15--------------------------15----17---||---------------------------------------------------||---------------------------------------------------||---------------------------------------------------||---------------------------------------------------||---------------------------------------------------|
|--17-----15-----17----19----17----15--17--15--14-15||---------------------------------------------------||---------------------------------------------------||---------------------------------------------------||---------------------------------------------------||---------------------------------------------------|
|-14-12-14-12-10-12-10----10------------------------|----------|----------------------13----13-12 13 12 10 12 10---|----------|---------------------------------------------------|--12------|---------------------------------------------------|----------|---------------------------------------------------|----------|---------------------------------------------------|----------
G B Alone and crying, and a thousand miles astray C D Alone upon the cruel sea, forsworn and cast away G B I turned my face to God, but his face was turned away C D C Lost in the Ozone, nothing left to say C D % Em Lost in the Ozone, nothing left to say D Em D Em Nothing left to say, nothing left to say D C Am Wash over me
Tap to rate this tab
 
# A B C D E F G H I J K L M N O P Q R S T U V W X Y Z