Mott The Hoople - Moon Upstairs tab

-------------------------------------------------------------------------------
                       The Moon Upstairs - Mott The Hoople
-------------------------------------------------------------------------------
Tabbed by: Me.

By: I.Hunter/M.Ralphs

Album: Brain Capers

Awesomeness: Their Best!
----------------------------------

Intro:

|---------------|-------------------------------------3-----||---------------|-------------------------------------3-3---||----5----7--2--|--------0----------------------------0-2-2-||----5----7--2--|-2------0----------------------------0-0-2-||----3----5--0--|-2---------------3------------3------x---0-||-(0)--(0)------|-0--0h3----0-3-5---5-3--0-3-5---5-3--3-----|
During Verse:
A: D: E:|-----5-|-------10-|-----7-||-----5-|-------10-|-----7-||-5h6---|-10h11----|-7h8---||-------|----------|-------||-------|----------|-------||-------|----------|-------|
A Well my brother he was a drinking man D And I asked him for release E He said this won't do you no good D And sent for the police A Well they busted me for nothing D Cos they said I was insane E So they let my body go D But they locked away my brain
|---------------|-------------------------------------3-----||---------------|-------------------------------------3-3---||----5----7--2--|--------0----------------------------0-2-2-||----5----7--2--|-2------0----------------------------0-0-2-||----3----5--0--|-2---------------3------------3------x---0-||-(0)--(0)------|-0--0h3----0-3-5---5-3--0-3-5---5-3--3-----|
A D Well I wandered freely as a bird that had broken both its wings E D And I hated them and they hated me and I hated everthing A D And I realise that to survive well my body is not mine E And I feel neglected feel rejected D D Living in the wrong time
|-----------------||-----------------||-----5------7--2-||-----5------7--2-||-----3------5--0-||-(0)----(0)------|
E5 And to those of you who always laugh G5 D Let this be your epitaph Organ Solo:
|---------------|-------------------------------------3-----||---------------|-------------------------------------3-3---||----5----7--2--|--------0----------------------------0-2-2-||----5----7--2--|-2------0----------------------------0-0-2-||----3----5--0--|-2---------------3------------3------x---0-||-(0)--(0)------|-0--0h3----0-3-5---5-3--0-3-5---5-3--3-----|
A D And my head is down and I'm called a clown by comedians that grace E D The living stage of every page of worthless meaningless space A D But I swear to you before we're though you're gonna feel our every blow E D We ain't bleeding you we're feeding you but you're too fucking slow
|-----------------||-----------------||-----5------7--2-||-----5------7--2-||-----3------5--0-||-(0)----(0)------|
E5 And to those of you who always laugh G5 Let this be your epitaph Guitar Solo:
|-----------------||-----------------||-----5------7--2-||-----5------7--2-||-----3------5--0-||-(0)----(0)------|
Repeat 4 times, then enda on an A.
Tap to rate this tab
 
# A B C D E F G H I J K L M N O P Q R S T U V W X Y Z