Mournful Congregation – The Monad Of Creation tab

================================================================================
                    M O U R N F U L   C O N G R E G A T I O N

                                       -

                    T H E   M O N A D   O F   C R E A T I O N
================================================================================


                             THE MONAD OF CREATION
                       (c) Weird Truth Productions - 2005
                       http://www.mournfulcongregation.tk/


                              Tune Down Four Steps
                                Ab Db Gb B Eb Ab

                                 Tempo = 62 BPM
                              Time Signature = 4/4



                          -----------------------------
                                 Transcribed by

                                 PADDY MCMULLAN
                           stinkypoohpants@yahoo.co.uk

                                   Version 1.1
                     (Corrections Outlined at Bottom of Tab)
                             -----------------------

                             Tablature Symbols Used:


 P.M...     -  Palm Mute
 p          -  Pull-Off
 h          -  Hammer-On
 x          -  Muted/Dead Note (Rest hand/finger on string to muffle the note)
 (14b15)    -  Bend note to the specified pitch
 (14b15r14) -  Bend note to specified pitch, then return to original pitch
 (/)        -  Legato Slide (Blank space indicates length of slide)
 \          -  Slide Down to/Down From (Blank space indicates length of slide)
 /          -  Slide Up To/Up From (Blank space indicates length of slide)
 ( )        -  Ghost Note/Tied Note/Implied Note
 REST       -  Rest (Sustain rest for duration of blank space)
 ~~         -  Vibrato
 |_3_|      -  Triplet Notes
 /\  \/     -  Strum down/up, respectively
 <5>        -  Harmonic note (type of harmonic is indicated above tab)


 Staccato note - Hold the note only for the duration of the pick attack, after
                 which "unfret" the note immediately (Note/chord is "bookmarked"
                 by two asterisks to indicate Staccato)



================================================================================
Riff 1a: Guitar 1 with Heavy Distortion (Play 2 times)
================================================================================


||--------------------|---------------------|-----------------------|||--------------------|---------------------|-----------------------|||--------------------|--10--------9--------|-----------------------|||-----------7--------|---------------------|-----------12----(12)\ |||--5-----------------|---------------------|--8--------------------|||--------------------|---------------------|-----------------------|
|--------------------|---------------------|-----------------------| ||--------------------|---------------------|-----------------------| ||--------------------|--10--------9--------|-----------12----(12)\ |*||-----------7--------|---------------------|--8--------------------|*||--5-----------------|---------------------|-----------------------| ||--------------------|---------------------|-----------------------| |
================================================================================ Riff 1b: Guitar 2 with Heavy Distortion (Play 6 times) ================================================================================
||--------------------|----------------------|-----------------------|||--------------------|----------------------|-----------------------|||--------------------|----------------------|-----------------------|||--------------------|--7h8--------7--------|-----------------------|||-----------5--------|----------------------|-----------10----(10)\ |||--3-----------------|----------------------|--6--------------------|
|--------------------|----------------------|-----------------------| ||--------------------|----------------------|-----------------------| ||--------------------|----------------------|-----------------------|*||--------------------|--7h8--------7--------|-----------10----(10)\ |*||-----------5--------|----------------------|--6--------------------| ||--3-----------------|----------------------|-----------------------| |
On the 3rd repeat, replace 5th bar with the following:
|-----------------------||-----------------------||-----------------------||--8--------(7 b 8r7)--||-----------------------||-----------------------|
================================================================================ Riff 2a: Guitar 1 with Heavy Distortion (Play 4 times) ================================================================================ NOTE: Guitar 2's part overlaps with this one
||-----------------------|--------------------|--------------------|||-----------------------|--------------------|--------------------|||-----------------------|--------------------|--------------------|||-----------------------|--------------------|--------------------|||--10--------8-----(8)\ | -6--------5--------|--8-----------------|||-----------------------|--------------------|-----------8--------|
|-----------------------|--------------------|--------------------------| ||-----------------------|--------------------|--------------------------| ||-----------------------|--------------------|--------------------------|*||-----------------------|--------------------|--------------------------|*||--10--------8-----(8)\ | -6--------5--------|-(9/13)-------12----(12)\ | ||-----------------------|--------------------|--------------------------| |
The last bar is played only on the first repeat; all subsequent repeats play the following bar in its place:
|---------------------------||---------------------------||---------------------------||---------------------------||-(9/13)-------(12 b 14r12)\||---------------------------|
================================================================================ Riff 2b: Guitar 3 with Heavy Distortion (Play 2 times) ================================================================================
||--------------------|--------------------|--------------------|||--------------------|--------------------|--------------------|||--------------------|-----------7--------|--8--------7--------|||--8--------7--------|--8-----------------|--------------------|||--------------------|--------------------|--------------------|||--------------------|--------------------|--------------------|
|--------------------|--------------------|-----------------------| ||--------------------|--------------------|-----------------------| ||--------------------|-----------7--------|-(8/10)-------8--------|*||--8--------7--------|--8-----------------|-----------------------|*||--------------------|--------------------|-----------------------| ||--------------------|--------------------|-----------------------| |
On the last repeat replace the last bar with the following:
|--------------------------||--------------------R- -||-(8/10) \ 8)--8--E- -||--------------------S- -||--------------------T- -||--------------------------|
================================================================================ Riff 3: Guitars 1 and 2 (Play 2 times) ================================================================================
||----------------------|----------------------|----------------------|||----------------------|----------------------|----------------------|||----------------------|----------------------|----------------------|||----------------------|----------------------|----------------------|||--5-------(5 / 6)---|--(6 \ 3)----3--------|--5-------(5 / 9)---|||--3-------(3 / 4)---|--(4 \ 1)----1--------|--3-------(3 / 7)---|
|----------------------| ||----------------------| ||----------------------|*||----------------------|*||--(9 \ 6)----6--------| ||--(7 \ 4)----4--------| |
================================================================================ Guitars 1, 2 & 3 repeat Riff 2 x 2 (Including overlap) [ Tempo = 78 BPM ] ================================================================================ ================================================================================ Riff 4: Guitars 1 and 2 (Play once) [Tempo = 62 BPM] ================================================================================
| |--------------------------|-----------------------------|| |--------------------------|---------10---------8--------||5|--10----9----7------------|-----------------------------||/|--0-----0----0------------|-(5/8)--(8)----7---(7)-------||4|--------------------------|-----------------------------|| |--------------------------|-----------------------------|
| |----------------------| |-----------------------|---------------------------|| |-------6---------5----| |-----------------------|-------------------8-------||4|----------------------|5|--9----7---------------|---------9-----------------||/|--5---(5)---3---(3)---|/|--7----7----5----------|---------------------------||4|----------------------|4|--7----7----7----------|-(7/8)--(8)---7---(7)------|| |----------------------| |-----------------------|---------------------------|
| |------------------------| |--------------------------|| |------------------------| |--------------------------||4|--------10---------9----|5|--10----9----7------------||/|------------------------|/|--0-----0----0------------||4|------------------------|4|--------------------------|| |--10---(10)---8---(8)---| |--------------------------|
|----------------------------| |----------------------| |----------------------||---------10---------8-------| |-------6---------5----| |--1----3----5---------||----------------------------|4|----------------------|5|--3----3----3---------||-(5/8)--(8)----7---(7)------|/|--5---(5)---3---(3)---|/|--3----3----3---------||----------------------------|4|----------------------|4|----------------------||----------------------------| |----------------------| |----------------------|
|---------------------------| |------------------------------|||--5----3-R- -----------| |----------------------R- -|||--3----3-E- -7----5----|6|---------------5----5-E- -|||--3----3-S- -7----7----|/|--5------------7----7-S- -|||---------T- -7----7----|4|--7------------7----7-T- -|||---------------------------| |------------------------------||
================================================================================ Guitars 1 and 2 play Riff 4 once, with the following replacement for Bar 1 ================================================================================
| |--------------------------|| |--------------------------||5|--------------------------||/|---7----5----3------------||4|---5----5----5------------|| |--------------------------|
================================================================================ Lead Riff 1a: Guitar 3 with Heavy Distortion (Play once) ================================================================================
| |-----------------------------|-----------------------------------|| |--15----13----15~~-----------|-----------13----------11----(11)\ ||5|-----------------------------|-----------------------------------||/|-----------------------------|-(10/12)--(12)---10---(10)---------||4|-----------------------------|-----------------------------------|| |-----------------------------|-----------------------------------|
| |-----------------------| |------------------------------|| |-------10---------8----| |------------------------------||4|-----------------------|5|------------------------------||/|--8---(8)----7---(7)---|/|--(9/12 \ 10)----5------------||4|-----------------------|4|------------------------------|| |-----------------------| |------------------------------|
|-------------------------------| |-----------------------||---------------------11--------| |-------10---------8----||----------12-------------------|4|-----------------------||-(8/10)--(10)---8---(8)--------|/|--7---(7)----5---(5)---||-------------------------------|4|-----------------------||-------------------------------| |-----------------------|
| |-----------------------------|-----------------------------------|| |--15----13----15~~-----------|-----------13----------11----(11)\ ||5|-----------------------------|-----------------------------------||/|-----------------------------|-(10/12)--(10)---10---(10)---------||4|-----------------------------|-----------------------------------|| |-----------------------------|-----------------------------------|
| |-------------------------------| |------------------------------|| |----------10-------------------| |------------------------------||4|-------------------------12----|5|--10----12---(12 b 14 r 12)||/|-(8/10)--(10)--(10/12)--(10)---|/|------------------------------||4|-------------------------------|4|------------------------------|| |-------------------------------| |------------------------------|
|---------------------------------| |--------------------------------|||---------------------------------| |--------------------------R- -|||--10---(12 b 14)-(12 b 14 r 12)-|6|--9~~-----------9----9\ --E- -|||---------------------------------|/|--------------------------S- -|||---------------------------------|4|--------------------------T- -|||---------------------------------| |--------------------------------||
================================================================================ Lead Riff 1b: Guitar 4 with Heavy Distortion (Play once) ================================================================================
| |----------------------------|-----------------------------------|| |----------------------------|-----------13----------11----(11)\ ||5|----------------------------|-----------------------------------||/|----------------------------|-(10/12)--(12)---10---(10)---------||4|--12----10----8~~-----------|-----------------------------------|| |----------------------------|-----------------------------------|
| |-----------------------| |-------------------------------|| |-------10---------8----| |-------------------------------||4|-----------------------|5|-------------------------------||/|--8---(8)----7---(7)---|/|-------------------------------||4|-----------------------|4|--(10/12 \ 10)----7------------|| |-----------------------| |-------------------------------|
|-------------------------------| |-----------------------||---------------------11--------| |-------10---------8----||----------12-------------------|4|-----------------------||-(8/10)--(10)---8---(8)--------|/|--7---(7)----5---(5)---||-------------------------------|4|-----------------------||-------------------------------| |-----------------------|
| |-------------------------------|-----------------------------------|| |-------------------------------|-----------13----------11----(11)\ ||5|-------------------------------|-----------------------------------||/|-------------------------------|-(10/12)--(12)---10---(10)---------||4|-(10/12)---10----8~~-----------|-----------------------------------|| |-------------------------------|-----------------------------------|
| |-------------------------------| |-----------------------------|| |----------10-------------------| |-----------------------------||4|-------------------------12----|5|-----------------------------||/|-(8/10)--(8)---(10/12)--(12)---|/|--12----12----(14 b 15)--||4|-------------------------------|4|-----------------------------|| |-------------------------------| |-----------------------------|
|----------------------------------| |-----------------------------------|||----------------------------------| |-----------------------------R- -|||----------------------------------|6|-----------------------------E- -|||--12----(14 b 15)--(14 b 15r14)--|/|--10~~-----------10----10\ --S- -|||----------------------------------|4|-----------------------------T- -|||----------------------------------| |-----------------------------------||
================================================================================ Riff 5a: Guitar 5 with Clean Tone (Play once) [ Tempo = 54 BPM ] ================================================================================ * Let notes ring wherever possible *
||------------------------|--------------------------|||--10--------------------|--------------------------|||--10--------10----------|--12----10----------10----|||--12--------------------|--------------------------|||--12--------------12----|--------------12----------|||--10--------------------|--------------------------|
[ Use thumb to fret low E string ]
|--8--------5---------||--6------------------||--7------------------||---------------------||---------------------||----------------6----|
|-------------------------|------------------------|--------------------------||--8----------------------|--10--------------------|--------------------------||------------9---(9/10)---|--10--------10----------|--12----10----------10----||-------------------------|--12--------------------|--------------------------||-------8-----------------|--12--------------12----|--------------12----------||-------------------------|--10--------------------|--------------------------|
|_3__||-------------------|--4-------------------------|------------------------||--5----------------|----4h 5--------------------|--10--------------------||--6----------------|----------------------------|--10--------10----------||--6----------------|---------6------------------|--12--------------------||--4----------------|----------------------------|--12--------------12----||-------------------|----------------------------|--10--------------------|
|--------------------------||--------------------------||--12----10----------10----||--------------------------||--------------12----------||--------------------------|
[ Use thumb to fret low E string ]
|--8--------5---------||--6------------------||--7------------------||---------------------||---------------------||----------------6----|
|--------------------------|------------------------|--------------------------||--8-----------------------|--10--------------------|--------------------------||------------9----(9/10)---|--10--------10----------|--12----10----------10----||--------------------------|--12--------------------|--------------------------||-------8------------------|--12--------------12----|--------------12----------||--------------------------|--10--------------------|--------------------------|
|_3_| |_3__||-------------------|--4------------------------|||-------------------|----4----------------------|||-------------------|------4--------------------|||--8----------------|--------8------------------|||--6----------------|----------6-(6)------------|||--6----------------|---------------------------||
================================================================================ Riff 5b: Guitar 6 with Clean Tone ================================================================================
||-------------------|-------------------|-------------------|||-------------------|-------------------|-------------------|||--9----------------|--(9)--------------|--7----------------|||-------------------|-------------------|-------------------|||-------------------|-------------------|-------------------|||-------------------|-------------------|-------------------|
|-------------------|--12~~---------------|--(12)-------------||-------------------|---------------------|-------------------||--(7)--------------|---------------------|-------------------||-------------------|---------------------|-------------------||-------------------|---------------------|-------------------||-------------------|---------------------|-------------------|
|--------------------|-------------------|-------------------||--------------------|-------------------|-------------------||--------------------|-------------------|--9----------------||--------------------|-------------------|-------------------||--11----------------|--(11)-------------|-------------------||--------------------|-------------------|-------------------|
|-------------------|-------------------|-------------------||-------------------|-------------------|-------------------||--(9)--------------|--7----------------|--(7)--------------||-------------------|-------------------|-------------------||-------------------|-------------------|-------------------||-------------------|-------------------|-------------------|
|--12~~---------------|--(12)-------------|-------------------||---------------------|-------------------|-------------------||---------------------|-------------------|-------------------||---------------------|-------------------|--8----------------||---------------------|-------------------|-------------------||---------------------|-------------------|-------------------|
|-------------------|||-------------------|||-------------------|||--(8)--------------|||-------------------|||-------------------||
================================================================================ Riff 6a: Guitar 5 (Play once) ================================================================================ * Let notes ring wherever possible *
||------------------------|--------------------------|||------------------------|--------------------------|||------------10----------|--12----10----------10----|||------------------------|--------------------------|||------------------12----|--------------12----------|||--10--------------------|--------------------------|
[ Use thumb to fret low E string ]
|-----------10---------||----------------------||----------------------||----------------------||----------------------||--6--------------6----|
|--8-----------------------|------------------------|--------------------------||--------------------------|------------------------|--------------------------||--------------------------|------------10----------|--12----10----------10----||-----------10---(10/13)---|--12--------------------|--------------------------||------8-------------------|------------------12----|--------------12----------||--------------------------|------------------------|--------------------------|
|_3__||-------------------|--4-------------------------|||-------------------|----4h 5--------------------|||-------------------|----------------------------|||--6----------------|---------6------------------|||--4----------------|----------------------------|||-------------------|----------------------------||
================================================================================ Riff 6b: Guitar 6 (Play once) ================================================================================ * Let notes ring wherever possible *
||---------------------|---------------------------------------|||-----------10--------|--(10/11)------(10 h11p10\8)--6--8 p6-|||---------------------|---------------------------------------|||--0------------------|---------------------------------------|||---------------------|---------------------------------------|||---------------------|---------------------------------------|
|-----------------------|------------------------|---------------------||--5-------(8/10)-------|--8--------8---(8/10)---|-----------10--------||-----------------------|------------------------|--7------------------||-----------------------|------------------------|---------------------||-----------------------|------------------------|---------------------||-----------------------|------------------------|---------------------|
|--8--------12----10----|--9~~---------------|--(9)--------------|||-----------------------|--------------------|-------------------|||-----------------------|--------------------|-------------------|||-----------------------|--------------------|-------------------|||-----------------------|--------------------|-------------------|||-----------------------|--------------------|-------------------||
================================================================================ Riff 7.1: Guitar 5 (Play 4 times) [ Tempo = 50 BPM ] ================================================================================ [ Let notes ring ]
| |-----------------------| || |----------0------------| ||3|------15---------15----|*||/|--13---------13--------|*||4|-----------------------| || |-----------------------| |
================================================================================ Riff 7.2a: Guitar 1 (Play once) ================================================================================ [ Let notes ring ]
||-----------------------|-----------------------|-----------------------|||----------0------------|----------0------------|----------0------------|||------15---------15----|------15---------15----|------15---------15----|||--13---------13--------|--13---------13--------|--13---------13--------|||-----------------------|-----------------------|-----------------------|||-----------------------|-----------------------|-----------------------|
* 1/4 bend up then * 1/4 bend up then release release|---------------------------|----------------------|---------------------------||----------0----------------|----------0-----------|----------0----------------||------15---------15b*r(15)-|------15---------15---|------15---------15b*r(15)-||--13---------13------------|--13---------13-------|--13---------13------------||---------------------------|----------------------|---------------------------||---------------------------|----------------------|---------------------------|
* 1/4 bend up then release|---------------------------|-----------------------|||----------0----------------|----------0------------|||------15---------15b*r(15)-|------15---------15----|||--13---------13------------|--13---------13--------|||---------------------------|-----------------------|||---------------------------|-----------------------||
================================================================================ Riff 7.2b: Guitar 2 (Play once) ================================================================================
[ Let notes ring ] * 1/4 bend up then * 1/4 bend up then release release||------------------------|-----------------------|------------------------|||----------0-------------|----------0------------|----------0-------------|||------15---------15b* -|r(15)-15---------15----|------15---------15b* -|||--13---------13---------|--13---------13--------|--13---------13---------|||------------------------|-----------------------|------------------------|||------------------------|-----------------------|------------------------|
|-----------------------|-----------------------|-----------------------||----------0------------|----------0------------|----------0------------||r(15)-15---------15----|------15---------15----|------15---------15----||--13---------13--------|--13---------13--------|--13---------13--------||-----------------------|-----------------------|-----------------------||-----------------------|-----------------------|-----------------------|
|-----------------------|------------------------|||----------0------------|----------0-------------|||------15---------15----|------15---------15\ --|||--13---------13--------|--13---------13---------|||-----------------------|------------------------|||-----------------------|------------------------||
================================================================================ Riff 8a: Guitar 1 (Play once) ================================================================================
| |------------------------|----------------------|------------------------|| |------------------------|----------------------|-----------0-----(0)(0)-||4|------------------------|----------------------|-----------9-----(9)(9)-||/|--2----------(2)--------|--9------9------9--9--|--9--9--9-(9)-----9--9--||4|--2----------(2)----2/ -|--7------7------7--7--|--7--7--7-(7)-----7--7--|| |--0-----------0--2--2/ -|--7------7------7--7--|--7--7--7-(7)-----7--7--|
|--------------------------|||--------------------------|||--------------9-(9)-9-(9)-|||--9--9--9--9--9--9--9--9--|||--7--7--7--7--7--7--7--7--|||--7--7--7--7--7--7--7--7--||
================================================================================ Riff 8b: Guitar 2 (Play once) ================================================================================
// Let notes ring||--------------------------------|----------------------------------|||--------------------------------|----------------------------------|||------------------16------------|--19----------19----------19------|||----------16--17------17--16----|------17----------17----------17--|||------14------------------------|----------14----------14----------|||--12----------------------------|----------------------------------|
\\|----------------------------------|----------------------------------|||--19----------19----------19------|--20------20--20--20--20--20--20--|||----------------------------------|----------x---x---x---x---x---x---|||------17----------17----------17--|-(17)-17--17--17--17--17--17--17--|||----------14----------14----------|----------------------------------|||----------------------------------|----------------------------------||
================================================================================ Riff 9a: Guitar 1 (Play once) [ Tempo = 80 BPM ] ================================================================================
| |-----------------------------------------|| |--14------15--15 \ 12--12-----(12)-12----||6|--x-------x---x----x---x-------x---x-----||/|--11------11--11---11--11------11--11----||4|--9-------9---9----9---9-------9---9-----|| |-----------------------------------------|
|--------------------------------------------||---------------------------------12--12-R -||--14------14--14 \ 13--13----13--x---x--E -||--11------11--11--(11)-11----11--11--11-S -||--9-------9---9---(9)--9-----9---9---9--T -||--------------------------------------------|
|-----------------------------------------||--14------15--15 \ 12--12-----(12)-12----||--x-------x---x----x---x-------x---x-----||--11------11--11---11--11------11--11----||--9-------9---9----9---9-------9---9-----||-----------------------------------------|
|-------------------------------------------|||-------------------------------------------|||--14------14--14 \ 13--13----13------------|||--11------11--11--(11)-11----11----9 / 12--|||--9-------9---9---(9)--9-----9-----7 / 9---|||-------------------------------------------||
================================================================================ Riff 9b: Guitar 2 (Play once) ================================================================================
||-------------------------------------------|||--14------14--14 \ 12--12------12--12------|||--x-------x---x--------x-------x---x---x---|||--11------11--11--(11)-11------11--11--11--|||--9-------9---9---(9)--9-------9---9---9---|||-------------------------------------------|
|--------------------------------------------||---------------------------------12--12-R -||--14------14--14 \ 13--13----13--x---x--E -||--11------11--11--(11)-11----11--11--11-S -||--9-------9---9---(9)--9-----9---9---9--T -||--------------------------------------------|
|-------------------------------------------||--14------14--14 \ 12--12------12--12------||--x-------x---x--------x-------x---x---x---||--11------11--11--(11)-11------11--11--11--||--9-------9---9---(9)--9-------9---9---9---||-------------------------------------------|
|-------------------------------------------|||-------------------------------------------|||--14------14--14 \ 13--13----13------------|||--11------11--11--(11)-11----11----9 / 12--|||--9-------9---9---(9)--9-----9-----7 / 9---|||-------------------------------------------||
================================================================================ Guitar Solo 1: Guitar 3 (Play once) [ Tempo = 50 BPM ] ================================================================================ Bar "0" serves as a segue from Riff 9
0||--------------------------|||--R- -----------------|||--E- -(9/11)--12--14--|||--S- -----------------|||--T- -----------------|||--------------------------|
1||-------------------------------------------|||-------------------------------------------|||--(14 b 16 r 14)-14~~-----14--12 p 11--|||-------------------------------------------|||-------------------------------------------|||-------------------------------------------|
2|----------------------------------------------||-------------------------------------------8--||--12----11------------------------------7-----||------------12\ 7/9~~-9~~-9~~ \--9---------||----------------------------------------------||----------------------------------------------|
3|--10-----------(9b10r9)------------------||-----------------------------10~~--------||--------------------------------------9--||-----------------------------------------||-----------------------------------------||-----------------------------------------|
4|--------------------------------------------||--(10/12)- \----(9/12)~~---14----15----||--------------------------------------------||--------------------------------------------||--------------------------------------------||--------------------------------------------|
5|--------------------------------------------||--15----14 \---------15----14-- \--------||----------------9- /----------------11 / ||--------------------------------------------||--------------------------------------------||--------------------------------------------|
6|----------------------------------------||---------------14--14--15---------14----|| -16-----------------------16~~---------||----------------------------------------||----------------------------------------||----------------------------------------|
7|---------------------------------------------||--15~~-----14--(14/19)----15~~-----14--14----||---------------------------------------------||---------------------------------------------||---------------------------------------------||---------------------------------------------|
8|---------------------------------------|||--15--------17----(17 b 19 r 17)\ -|||---------------------------------------|||---------------------------------------|||---------------------------------------|||---------------------------------------||
On bar 4 until the end of the solo, the following is played by Guitar 4:
||---------------------------------------|||--R- -(12/15)~~---17----19----|||--E- -------------------------|||--S- -------------------------|||--T- -------------------------|||---------------------------------------|
|---------------------------------------------||--19----17- \-----------19----17- \-------||----------------14- /----------------14----||---------------------------------------------||---------------------------------------------||---------------------------------------------|
|-------------------------------------------||--17~~----------19--19--20--17~~---19- \-||-------------------------------------------||-------------------------------------------||-------------------------------------------||-------------------------------------------|
|--14~~---------17----14~~---------17----|--19--------21---(21 b 22 r 21)\-|||-----------17-----------------17--------|------------------------------------|||----------------------------------------|------------------------------------|||----------------------------------------|------------------------------------|||----------------------------------------|------------------------------------|||----------------------------------------|------------------------------------||
================================================================================ Guitar Solo Backing: Guitars 1 & 2 (Play once) ================================================================================
||------------------------------------------|||------------------------------------------|||------------------------------------------|||--12------12--12- (12)12------12--12 \ 9--|||--10------10--10 \ 9--9-------9---9 \ 7--|||------------------------------------------|
|-------------------------------------||-------------------------------------||-------------------------------------||--9------9--9--9--9--9--9--9--9--9/ -||--7------7--7--7--7--7--7--7--7--7/ -||-------------------------------------|
|-----------------------------------------|------------------------------------||-----------------------------------------|------------------------------------||-----------------------------------------|------------------------------------||--12------12--12--(12)12-----12--12 \ 9--|--9------9--9--9--9--9--9--9--9--9--||--10------10--10 \ 9--9------9---9 \ 7--|--7------7--7--7--7--7--7--7--7--7--||-----------------------------------------|------------------------------------|
|-------------------------------------------|---------------------------------||-------------------------------------------|---------------------------------||-------------------------------------------|---------------------------------||-------------------------------------------|---------------------------------||--12------12--12 \ 11--11------11--11 \ 9--|--9------9--9----9------9--9 / -||--10------10--10 \ 9---9-------9---9 \ 7--|--7------7--7----7------7--7 / -|
|-------------------------------------------|---------------------------------|||-------------------------------------------|---------------------------------|||-------------------------------------------|---------------------------------|||-------------------------------------------|---------------------------------|||--12------12--12 \ 11--11------11--11 \ 9--|--9------9--9----9------9--9--9\ |||--10------10--10 \ 9---9-------9---9 \ 7--|--7------7--7----7------7--7--7\ ||
================================================================================ Riff 10a: Guitar 1 (Play once, repeating where indicated) [ Tempo = 34 BPM ] ================================================================================
* 1 & 1/4 bend up then release| |----------------------|--------------------------| || |----------------------|--------------------------| ||4|----------------------|--------------------------|*| X 2|/|----------------------|-------4----(7 b* r 7)-|*||4|--7------7--5----3----|--2-----------------------| || |----------------------|--------------------------| |
* 1 & 1/4 bend up then release||------------------------|-------------------------| |||------------------------|-------------------------| |||------------11----------|-------------------------|*| X 2||--9------9---9----------|------------7 b* r (7)-|*|||--7------7--------10----|--9----9-----------------| |||-------------------8----|--7----------------------| |
================================================================================ Riff 10b: Guitar 2 (Play 4 times) ================================================================================
* 1/4 bend up then release||----------------------|--------------------------| |||----------------------|--------------------------| |||----------------------|--------------------------|*|||--5------5--4---------|--------------4 b* r(4)-|*|||-----------------7----|--5--- \ 2----------------| |||----------------------|--------------------------| |
================================================================================ Riff 11a: Guitar 1 (Play once) [ Tempo = 50 BPM ] ================================================================================
1 2 3||----------------------|---------------------|------------------------|||----------------------|---------------------|------------------------|||----------------------|---------------------|------------------------|||--12--------11--------|--9--------7----5----|--12--------14----11----|||----------------------|---------------------|------------------------|||----------------------|---------------------|------------------------|
4 5|---------------------------|------------------------||---------------------------|------------------------||---------------------------|------------------------||--9-------\ (7/9)----11----|--7--------7----11-- \-||---------------------------|------------------------||---------------------------|------------------------|
6 7|--------------------------|------------------------||--------------------------|------------------------||--------------------------|------------------------||--5------ \-(5/7)----5----|-------7----------6-----||--------------------------|--5-------5--4-------4--||--------------------------|------------------------|
8 9|---------------------------|-----------------------||---------------------------|-----------------------||---------------------------|-----------------------||--12------12--11------11 \ | -9------9 \ 7----5----||---------------------------|-----------------------||---------------------------|-----------------------|
*1/4 bend up 10 11 then release|------------------------|----------------------------------||------------------------|----------------------------------||------------------------|----------------------------------||--12--------14----11----|--9------- \-(7/9)----11 b* r(11)||------------------------|----------------------------------||------------------------|----------------------------------|
12 13|-----------------------------|---------------------------||-----------------------------|---------------------------||-----------------------------|---------------------------||--7------- \-(5/7)----11-- \ | -5------- \-(5/7)----5----||-----------------------------|---------------------------||-----------------------------|---------------------------|
14 * 1/4 bend up then release|--------------------------------|||--------------------------------|||--------------------------------|||-------7-----------------6--6\--|||--5-------5--4 b* r(4)------4\--|||--------------------------------||
================================================================================ Riff 11b: Guitar 2 (Play once) ================================================================================
1 2||------------------------|---------------------------|||------------------------|---------------------------|||------------------------|---------------------------|||--5------5 / 7------7 / | -12------12--11--- \ 9----|||------------------------|---------------------------|||------------------------|---------------------------|
3 4|------------------------|--------------------------||------------------------|--------------------------||------------------------|--------------------------||--5------5 / 7------7 / | -12------9 / 12----14----||------------------------|--------------------------||------------------------|--------------------------|
5 6|----------------------------|-----------------------------||----------------------------|-----------------------------||----------------------------|-----------------------------||--16----- \-9--12----16----|--19----- \-12--16----19----||----------------------------|-----------------------------||----------------------------|-----------------------------|
7 8|------------------------------------|------------------------||------------------------------------|------------------------||--19------19--(18 b 21r18)-16-- \-|------------------------||------------------------------------|--5------5 / 7------7 / ||------------------------------------|------------------------||------------------------------------|------------------------|
9 10|-----------------------------|------------------------||-----------------------------|------------------------||-----------------------------|------------------------|| -12------12--11--- \ 9-- \ | -5------5 / 7------7 / ||-----------------------------|------------------------||-----------------------------|------------------------|
11 12|--------------------------|-------------------------------||--------------------------|-------------------------------||--------------------------|-------------------------------|| -12------9 / 12----14----|--16----- \-9--12----14h16----||--------------------------|-------------------------------||--------------------------|-------------------------------|
13 14|-----------------------------|-----------------------------------|||-----------------------------|-----------------------------------|||-----------------------------|--19------19--(18 b19r18)-16-- \-|||--19----- \-12--16----19----|-----------------------------------|||-----------------------------|-----------------------------------|||-----------------------------|-----------------------------------||
================================================================================ Riff 11c: Guitar 3 (Play once) ================================================================================
1 2||--------------------------------|-------------------------|||--------------------------------|-------------------------|||--------------------------------|-------------------------|||--16------16 \ 14------(14/17)--|--16------16 \ 14--------|||--------------------------------|-------------------------|||--------------------------------|-------------------------|
3 4|---------------------------|---------------------------------||---------------------------|---------------------------------||---------------------------|---------------------------------||--16h17------16--14--------|--16h17------(14/16)\12----------||---------------------------|---------------------------12----||---------------------------|---------------------------------|
5 6 7|----------------------|-------------------------|-------------------------||----------------------|-------------------------|-------------------------||----------------------|-------------------------|-------------------------||-----------------7----|--12------9--12----11----|-----------------11--14--||--9------7--9---------|-------------------------|--9------9--7------------||----------------------|-------------------------|-------------------------|
8 9|--------------------------------|-------------------------||--------------------------------|-------------------------||--------------------------------|-------------------------||--16------16 \ 14------(14/17)--|--16------16 \ 14--------||--------------------------------|-------------------------||--------------------------------|-------------------------|
10 11|---------------------------|---------------------------------||---------------------------|---------------------------------||---------------------------|---------------------------------||--16h17------16--14--------|--16h17------(14/16)\12----------||---------------------------|---------------------------12----||---------------------------|---------------------------------|
12 13 14|----------------------|-------------------------|------------------------|||----------------------|-------------------------|------------------------|||----------------------|-------------------------|------------------------|||-----------------7----|--12------9--12----11----|------------------------|||--9------7--9---------|-------------------------|--9------9--7----4-- \-|||----------------------|-------------------------|------------------------||
================================================================================ Riff 12a: Guitar 1 (Play twice) ================================================================================
||-----------|---------------------|-----------|-------------------------| |||-----------|---------------------|-----------|-------------------------| |||-----------|---------------------|-----------|-------------------------|*|||--7--------|--7------------3--5--|--7--------|--5--5----5--5 / 8--8----|*|||--7--------|--7------------3--5--|--7--------|--5--5----5--5 / 8--8----| |||--5--------|--5------------1--3--|--5--------|--3--3----3--3 / 6--6----| |
================================================================================ Riff 12b: Guitar 2 (Play twice) ================================================================================
||----------------------------|-------------------------------|||----------------------------|-------------------------------|||----------------------------|-------------------------------|||--2----2--(2/7)--7--5--2----|--2----2--(2/10)--10--9--3--2--|||--0-------------------------|--0----------------------------|||----------------------------|-------------------------------|
|-------------------------------|-------------------| ||-------------------------------|--R- -| ||-------------------------------|--E- -|*||--2----7--(7/12)--12--10--7----|--S- -|*||--0----------------------------|--T- -| ||-------------------------------|-------------------| |
================================================================================ Riff 12c: Guitar 3 (Play twice) ================================================================================
||-----------------------------|-----------------------------|||-----------------------------|-----------------------------|||-----------9--10--9----------|-----------9--10--9----------|||--2----10------------10-- \-|--2----10------------10--12--|||--0--------------------------|--0--------------------------|||-----------------------------|-----------------------------|
|-----------------------------|-------------------| ||-----------------------------|--R- -| ||-----------9--10--9----------|--E- -|*||--2----10------------10-- \-|--S- -|*||--0--------------------------|--T- -| ||-----------------------------|-------------------| |
================================================================================ Riff 13: Guitars 1 & 2 (Play twice) [ Tempo = 40 BPM ] ================================================================================ * = Staccato note(s)
| |-----------8----8--|--10----10--10------*---|--8----8----------|| |-----------x----x--|--x-----x---x---10--12--|--x----x----------||3|--2--------9----9--|--10----10--10--10--10--|--9----9--9----9--||/|--2----2 / 7----7--|--8-----8---8---8---8---|--7----7--7----7--||4|--0----0---0----0--|--8-----8---8---8---8---|--0----0--0----0--|| |-------------------|--------------------*---|------------------|
|----------------------| ||----------------------| ||------------------*---|*||--10----10--10-9--12--|*||--8-----8---8--8--10--| ||--8-----8---8--8--10--| | *
================================================================================ Riff 14: Guitars 1 & 2 (Play twice) ================================================================================
||------------------|------------------------------|------------------|||------------------|------------------------------|------------------|||--9----5--5----9--|--10---(10)----------(9 b10r9)|--9----5--5----9--|||--7----7--7----7--|--10----10 / 12--10-----------|--7----7--7----7--|||--0----0--0----0--|--8-----8----13--12-----------|--0----0--0----0--|||------------------|--8-----8----13--13-----------|------------------|
|----------------------------| ||----------------------------| ||--10--------------(9 b10r9)|*||--10----10 / 12-------------|*||--8-----8----13-8-----------| ||--8-----8----13-8-----------| |
================================================================================ Riff 15a: Guitar 1 (Play once) ================================================================================
||----------------------------|-----------------------|||--13----13--13\12-12--12\10-|--10----10--10\8-8--8/ |||----------------------------|-----------------------|||----------------------------|-----------------------|||----------------------------|-----------------------|||----------------------------|-----------------------|
|----------------------------------|--------------------------|| -13----15--15\12-12--(12 b13r12)-|--10----10--10/12-12--12--||----------------------------------|--------------------------||----------------------------------|--------------------------||----------------------------------|--------------------------||----------------------------------|--------------------------|
|----------------------------|-----------------------||--13----13--13\12-12--12\10-|--10----10--10\8-8--8/ ||----------------------------|-----------------------||----------------------------|-----------------------||----------------------------|-----------------------||----------------------------|-----------------------|
|----------------------------------|---------------------------||| -13----15--15\12-12--(12 b13r12)-|--10----10--10/12-12--12\ -|||----------------------------------|---------------------------|||----------------------------------|---------------------------|||----------------------------------|---------------------------|||----------------------------------|---------------------------||
================================================================================ Riff 15b: Guitar 2 (Play once) ================================================================================
||---------------------------|--------------------|||---------------------------|--------------------|||--12----12--12\10-10--10\9-|--9----9--9\7-7--7/ |||---------------------------|--------------------|||---------------------------|--------------------|||---------------------------|--------------------|
|---------------------------|--------------------||---------------------------|--------------------||--12----14--14\10-10--10\9-|--9----9--9\7-7--7--||---------------------------|--------------------||---------------------------|--------------------||---------------------------|--------------------|
|---------------------------|--------------------||---------------------------|--------------------||--12----12--12\10-10--10\9-|--9----9--9\7-7--7/ ||---------------------------|--------------------||---------------------------|--------------------||---------------------------|--------------------|
|---------------------------|------------------------------||-----------|||---------------------------|------------------(10 b12r10)-||--(10)-----|||--12----14--14\10-10--10\9-|--9----9--9\7-7---------------||-----------|||---------------------------|------------------------------||-----------|||---------------------------|------------------------------||-----------|||---------------------------|------------------------------||-----------||
================================================================================ Riff 15c: Guitar 3 (Play once) ================================================================================
||---------------------------|--------------------|||---------------------------|--------------------|||---------------------------|--------------------|||---------------------------|--------------------|||--12----12--12\10-10--10\8-|--8----8--8\7-7--7/ |||---------------------------|--------------------|
|----------------------------------|-------------------------||----------------------------------|-------------------------||----------------------------------|-------------------------||----------------------------------|-------------------------||--12----13--13\10-10--(10 b11r10)-|--8----8--8-10-10--10\12-||----------------------------------|-------------------------|
|---------------------------|--------------------||---------------------------|--------------------||---------------------------|--------------------||---------------------------|--------------------||--12----12--12\10-10--10\8-|--8----8--8\7-7--7/ ||---------------------------|--------------------|
|----------------------------------|-------------------------|||----------------------------------|-------------------------|||----------------------------------|-------------------------|||----------------------------------|-------------------------|||--12----13--13\10-10--(10 b11r10)-|--8----8--8-10-10--10b12-|||----------------------------------|-------------------------||
================================================================================ Riff 16a: Guitar 1 (Play once) [ Tempo = 45 BPM ] ================================================================================
1 2| |-------------------------|----------------------------|| |-------------------------|----------------------------||4|-------------------------|----------------------------||/|--7------7--5----5 / 7 \ | -(2 b3r2)---0--(2 b3r2)-||4|-------------------------|----------------------------|| |-------------------------|----------------------------|
3 4 5|-----------------------|-----------------------|-------------------------||-----------------------|-----------------------|-------------------------||-----------------------|-----------------------|-------------------------||--0------0--0----0--3--|--3------3--3----3 / | -7------7--5----5 / 7 \ ||-----------------------|-----------------------|-------------------------||-----------------------|-----------------------|-------------------------|
6 7|----------------------------|-----------------------||----------------------------|-----------------------||----------------------------|--------------------2--|| -(2 b3r2)---0--(2 b3r2)-|--3------3--3----3-----||----------------------------|-----------------------||----------------------------|-----------------------|
8 9|--------------------------|-------------------------||--------------------------|-------------------------||--2------2--2 / 4--4 h 5--|-------------------------||--------------------------|--7------7--5----5 / 7 \ ||--------------------------|-------------------------||--------------------------|-------------------------|
10 11|----------------------------|-----------------------||----------------------------|-----------------------||----------------------------|--------------------2--|| -(2 b3r2)---0--(2 b3r2)-|--3------3--3----3-----||----------------------------|-----------------------||----------------------------|-----------------------|
12 13|--------------------------------|------------------------||--------------------------------|------------------------||--2------2--(4/5)--4--(5/7)--5--|--5------5--4----4 h 5--||--------------------------------|------------------------||--------------------------------|------------------------||--------------------------------|------------------------|
14 * 3/4 bend up then release [15]|---------------------------|-----------------------||---------------------------|-----------------------||--0------2--2----(2 b*r2-)|--------------------2--||---------------------------|--3------3--3----3-----||---------------------------|-----------------------||---------------------------|-----------------------|
16 17|-------------------------------|-------------------------||-------------------------------|-------------------------||--2------2--(4/5)--4--(5/7)----|--9------9--7----7 / 9 \ ||-------------------------------|-------------------------||-------------------------------|-------------------------||-------------------------------|-------------------------|
18 19|----------------------------|-----------------------||----------------------------|-----------------------|| -(4 b5r4)---2--(4 b5r4)-|--------------------2--||----------------------------|--3------3--3----3-----||----------------------------|-----------------------||----------------------------|-----------------------|
20 21|------------------------------|-------------------------||------------------------------|-------------------------||--2------2--(2/5)----(5/7)----|--9------9--7----7 / 9 \ ||------------------------------|-------------------------||------------------------------|-------------------------||------------------------------|-------------------------|
22 23|----------------------------|-----------------------||----------------------------|-----------------------|| -(4 b5r4)---2--(4 b5r4)-|--------------------2--||----------------------------|--3------3--3----3-----||----------------------------|-----------------------||----------------------------|-----------------------|
24|--------------------------------------|||--------------------------------------|||--(2 / 4)--(4 / 5)--(5 / 7)--(7 / 9)--|||--------------------------------------|||--------------------------------------|||--------------------------------------||
================================================================================ Riff 16b: Guitar 2 (Play once) ================================================================================ [ Rest for 4 bars ]
5 6||-------------------------|----------------------------|||-------------------------|----------------------------|||-------------------------|----------------------------|||--7------7--5----5 / 7 \ | -(2 b3r2)---0--
Please rate this tab:
x1.0