Mournful Congregation - A Slow March To The Burial tab

================================================================================
                    M O U R N F U L   C O N G R E G A T I O N

                                       -

               A   S L O W   M A R C H   T O   T H E   B U R I A L
================================================================================


                                  THE JUNE FROST
                       (c) Weird Truth Productions - 2009
                       http://www.mournfulcongregation.tk/


                               Tune Down Four Steps
                                 Ab Db Gb B Eb Ab

                                  Tempo = 70 BPM
                               Time Signature = 4/4



                          -----------------------------
                                 Transcribed by

                                 PADDY MCMULLAN
                           stinkypoohpants@yahoo.co.uk

                                   Version 1.0
                                1st November 2009
                             -----------------------

                             Tablature Symbols Used:


 p          -  Pull-Off
 h          -  Hammer-On
 (6/9)      -  Legato Slide (Blank space indicates length of slide)
 10\7       -  Shift Slide (i.e. Strike destination note upon arrival)
 ( )        -  Ghost Note/Tied Note/Implied Note
 |_3_|      -  Triplet Notes
 4b5        -  Bend
 4b6r4      -  bend then Release



================================================================================
Section 1a: Guitar 1 with Heavy Distortion (Play twice)
================================================================================


1 2||-----------------------|-------------------------|||-----------------------|-------------------------|||-----------------------|-------------------------|||--10--------9----9h10--|----------(7/10)---9 \ |||-----------------------|--7----------------------|||-----------------------|-------------------------|
3 4 5|--------------------|------------------------------|---------------||--------------------|------------------------------|---------------||--------------------|---------------(4b5r4)--------|--4------------|| -5------------5----|-(4b5r4)-----2-------------2--|---------------||--------------------|------------------------------|---------------||--------------------|------------------------------|---------------|
6 7|----------------------|------------------------||----------------------|------------------------||----------------------|------------------------||--3-----------(5/7)---|--5------5h7-9------ \ -||----------------------|------------------------||----------------------|------------------------|
8 9 10|----------------------------|----------------|--------------------------||----------------------------|----------------|--------------------------||----------------------------|---------7------|--------------------------||--4----4--4-5-(5/7)----4----|--5-------------|--7------7-9-10----7--- \ ||----------------------------|----------------|--------------------------||----------------------------|----------------|--------------------------|
11 12|----------------------------|--------------------------| ||----------------------------|--------------------------| ||----------------------------|--11---9------11---9------|*|| -9------9h10-(10/12)-------|-----------9-----------9--|*||----------------------------|--------------------------| ||----------------------------|--------------------------| |
================================================================================ Section 1b: Guitar 2 with Heavy Distortion (Play 4 times) ================================================================================
||-----------------------|------------------------|---------------------|||-----------------------|------------------------|---------------------|||-----------11----11----|------------------------|---------------------|||-----------------------|--10--------------------|---------------------|||--7--------------------|------------------------|-----------10--------|||-----------------------|----------------(3/5) / | -7------------------|
|---------------------|||---------------------|||--7------------------|||---------------------|||-----------5------5--|||---------------------||
================================================================================ Section 1c: Guitar 3 with Heavy Distortion (Play twice) ================================================================================
1 2 3||-------------------|-----------------------|--------------------|||-------------------|-----------------------|--------------------|||-------------------|-----------------------|--------------------|||-------------------|-----------------------|--------------------|||-------------------|-----------------------|--------------------|||--5----------------|--5--------5 / 7 \ | -3------------3----|
4 5 6|-----------------------|-------------------|-------------------||-----------------------|-------------------|-------------------||-----------------------|-------------------|-------------------||-----------------------|-------------------|-------------------||-----------------------|-------------------|--3----------------||-(2b3r3)--0-(2 b3 r2)-|--0----------------|-------------------|
7 8 9|--------------------|--------------------|-------------------||--------------------|--------------------|-------------------||--------------------|--------------------|-------------------||--------------------|--------------------|-------------------||--------------------|---------------5----|--7----------------||--3------------3----|--5-----------------|-------------------|
10 11 12|-------------------|--------------------|-------------------------|||-------------------|--------------------|-------------------------|||-------------------|--------------------|-------------------------|||-------------------|--------------------|-------------------------|||--8----------------|--10----------------|--12------ \-5---3---2--|||-------------------|--------------------|-------------------------||
================================================================================ Section 2a: Guitar 1 (Play once) ================================================================================
1 2 3||----------------------|----------------------|-----------------------|||----------------------|----------------------|-----------------------|||----------------------|----------------------|-----------------------|||----------------------|----------------------|-(7/9)-------9------9--|||--7-------(7 b 8 r7)--|--5-------(5 b6 r5)---|-----------------------|||----------------------|----------------------|-----------------------|
4 5|--------------------------|-------------------------||--------------------------|-------------------------||--------------------------|-------------------------||--9 \ 7--(7\5)-(4b5)-4----|-------------------------||--------------------------|--7------7-9-10------ \-||--------------------------|-------------------------|
6 7|-----------------------|---------------------------||-----------------------|---------------------------||-----------------------|-----------------------11--||-----------------------|--9------9--9--(9/12)------|| -5------5-7-9----5----|---------------------------||-----------------------|---------------------------|
8 9|------------------------------|--------------------||------------------------------|--------------------||--12---11-------12---11-------|--------------------||------------12------------12--|--------------------||------------------------------|--7-------(7 b8 r7)-||------------------------------|--------------------|
10 11 12|-----------------------|---------------------|--------------------------||-----------------------|---------------------|--------------------------||-----------------------|---------------------|--------------------------||----------(9 b10r9)-7--|--9--------9------9--|--9 \ 7--(7\5)-(4b5)-4----||--5--------------------|---------------------|--------------------------||-----------------------|---------------------|--------------------------|
13 14|-------------------------|-----------------------||-------------------------|-----------------------||-------------------------|-----------------------||-------------------------|-----------------------||--7------7-9-10------ \-| -5------5-7-9----5----||-------------------------|-----------------------|
15 16|----------------------------|------------------------------|||----------------------------|------------------------------|||------------------------11--|--12---11-------12---11-------|||--9----9--9--9--(9/12)------|------------12------------12--|||----------------------------|------------------------------|||----------------------------|------------------------------||
================================================================================ Section 2b: Guitar 2 (Play twice) ================================================================================
||----------------------|----------------------|-----------0--------|||----------------------|----------------------|-----------0--------|||----------------------|----------------------|-----------9--------|||----------------------|----------------------|-----------9--------|||--3-------(3 b4 r3)-|--2-------(2 b3 r2)-|--0--------0--------|||----------------------|----------------------|--------------------|
|--(0)--------------|------------------------|----------------------||--(0)--------------|------------------------|----------------------||--(9)--------------|------------------------|----------------------||--(9)--------------|------------------------|----------------------||--(0)--------------|--3------3-5-7------ \ | -2------2-3-5--------||-------------------|------------------------|----------------------|
|--0----------------|--(0)--------------| ||--0----------------|--(0)--------------| ||--9----------------|--(9)--------------|*||--9----------------|--(9)--------------|*||--0----------------|--(0)--------------| ||-------------------|-------------------| |
================================================================================ Section 2c: Guitar 3 (Play once) ================================================================================
1 2 3||----------------------|----------------------|-----------0--------|||----------------------|----------------------|-----------0--------|||----------------------|----------------------|-----------4--------|||----------------------|----------------------|-----------5--------|||----------------------|----------------------|-----------7--------|||--5-------(5 b6 r5)-|--3-------(3 b4 r3)-|--0--------0--------|
4 5 6|--(0)--------------|------------------------|------------------------||--(0)--------------|------------------------|------------------------||--(4)--------------|------------------------|------------------------||--(5)--------------|------------------------|------------------------||--(7)--------------|------------------------|------------------------||--(0)--------------|--5------5-7-8------ \ | -3------3-5-(7b 8r7)---|
7 // 8 Let Ring \\ 9|-----------0--------|------------------------|----------------------||-----------0--------|------------------------|----------------------||-----------4--------|--4---4---4--4---4---4--|----------------------||-----------5--------|--5---5---5--5---5---5--|----------------------||-----------7--------|--7---7---7--7---7---7--|----------------------||--0--------0--------|------------------------|--5-------(5 b6 r5)-|
10 11 12|----------------------|-----------0--------|--(0)--------------||----------------------|-----------0--------|--(0)--------------||----------------------|-----------4--------|--(4)--------------||----------------------|-----------5--------|--(5)--------------||----------------------|-----------7--------|--(7)--------------||--3-------(3 b4 r3)-|--0--------0--------|--(0)--------------|
13 14 15|------------------------|------------------------|-----------0--------||------------------------|------------------------|-----------0--------||------------------------|------------------------|-----------4--------||------------------------|------------------------|-----------5--------||------------------------|------------------------|-----------7--------||--5------5-7-8------ \ | -3------3-5-(7b 8r7)---|--0--------0--------|
16|--(0)--------------|||--(0)--------------|||--(4)--------------|||--(5)--------------|||--(7)--------------|||--(0)--------------||
================================================================================ Section 3: Guitars 1, 2 & 3 (Play twice) [ Tempo = 64 BPM ] ================================================================================
||----------------------|----------------------|----------------------|||----------------------|----------------------|----------------------|||----------------------|----------------------|----------------------|||----------------------|----------------------|----------------------|||--2----2----2----2----|--3----3----3----3----|--2----2----2----2----|||--0----0----0----0----|--1----1----1----1----|--0----0----0----0----| P.M............. ................ ................
|----------------------|----------------------|----------------------||----------------------|----------------------|----------------------||----------------------|----------------------|----------------------||----------------------|----------------------|----------------------||--3----3----5----5----|--2----2----2----2----|--3----3----3----3----||--1----1----3----3----|--0----0----0----0----|--1----1----1----1----| ................ ................ ................
|_3| |3_| |__3__||----------------------|-------------------------------| ||----------------------|-------------------------------| ||----------------------|-------------------------------|*||----------------------|-------------------------------|*||--2----2----2----2----|--3----3----5--5-5-5--5--5--5--| ||--0----0----0----0----|--1----1----3--3-3-3--3--3--3--| | ................ ...........................
================================================================================ All guitars repeat their respective parts for Section 1, ending the second repeat after 4 bars [ Tempo = 72 BPM ] ================================================================================ ================================================================================ Section 4a: Guitar 1 (Play 4 times) [ Tempo = 60 BPM ] ================================================================================
||---------------------------|-------------------| |||---------------------------|-------------------| |||---------------------------|-------------------|*|||---------------------------|-------------------|*|||--5----4----7----(7 b 8r7)-|--4----------------| |||---------------------------|-------------------| |
================================================================================ Section 4b: Guitar 2 (Play twice) ================================================================================
||----------------------|-------------------|---------------------------|||----------------------|-------------------|---------------------------|||----------------------|-------------------|---------------------------|||----------------------|-------------------|---------------------------|||----------------------|-------------------|------------4--------------|||--3----6----5----6----|--2----------------|--3----6---------(5 b 6r5)-|
|-------------------| ||-------------------| ||-------------------|*||-------------------|*||-------------------| ||--2----------------| |
================================================================================ Section 4c: Guitar 3 (Play twice) ================================================================================
||----------------------|-------------|---------------------------|||----------------------|-------------|---------------------------|||----------------------|-------------|---------------------------|||----------------------|-------------|---------------------------|||----------------------|-------------|------------7--------------|||--6----9----8----9----|--5----------|--6----9---------(8 b 9r8)-|
|-------------------| ||-------------------| ||-------------------|*||-------------------|*||-------------------| ||--5----------------| |
================================================================================ Section 5a: Guitar 1 (Play until fade) [ Tempo = 56 BPM ] ================================================================================
||---------------------------|-------------------| |||---------------------------|-------------------| |||---------------------------|-------------------|*|||---------------------------|-------------------|*|||---------(3b4r3)-1---------|-------------------| |||--1-------------------3----|--5----------------| |
================================================================================ Section 5b: Guitar 2 (Play until fade) ================================================================================
||---------------------------|-------------------| |||---------------------------|-------------------| |||---------------------------|--5----------------|*|||--6------(5b6r5)-3----5----|-------------------|*|||---------------------------|-------------------| |||---------------------------|-------------------| |
================================================================================ Section 5c: Guitar 3 (Play until fade) ================================================================================
[Wide vibrato]||---------------------------|----------------------| |||---------------------------|----------------------| |||---------(7b8r7)-5---------|--(4b5r4b5r4b5r4b5r4)-|*|||----------------------7----|----------------------|*|||--8------------------------|----------------------| |||---------------------------|----------------------| |
================================================================================ End ================================================================================ Tab summary: Section 1: 1a x 2 1b x 4 1c x 2 Section 2: 2a x 1 2b x 2 2c x 1 Section 3 x 4 Section 1: 1a x 2 1b x 4 1c x 2 Section 4: 4a x 4 4b x 2 4c x 2 Section 5 x Indefinitely END
Tap to rate this tab
 
# A B C D E F G H I J K L M N O P Q R S T U V W X Y Z