Mourning Beloveth – Yet Everything tab

================================================================================
                        M O U R N I N G   B E L O V E T H

                                        -

                        . . .Y E T   E V E R Y T H I N G
================================================================================


                               A MURDEROUS CIRCUS
                            (c) Grau Records - 2005
                        http://www.mourningbeloveth.com/


                              Tune Down 1 & 1/2 Steps
                                  C# F# B E G# C#

                                 Tempo =  75 BPM
                              Time Signature =  3/4



                          -----------------------------
                                 Transcribed by

                                 PADDY MCMULLAN
                           stinkypoohpants@yahoo.co.uk

                                   Version 1.3
                     (Corrections Outlined at Bottom of Tab)
                             -----------------------

                             Tablature Symbols Used:


 P.M...    -  Palm Mute
 p         -  Pull-Off
 h         -  Hammer-On
 (/)       -  Legato Slide (Blank space indicates length of slide)
 \         -  Slide Down to/Down From (Blank space indicates length of slide)
 /         -  Slide Up To/Up From (Blank space indicates length of slide)
 ( )       -  Ghost Note/Tied Note/Implied Note
 ~~        -  Vibrato
 REST      -  Rest, and sustain rest for duration of blank space
 |_3_|     -  Triplet Notes


                                  --------------
                                  | SONG NOTES |
                                  --------------


* Maintain a strict "down/up" strumming motion throughout the song when possible



================================================================================
Riff 1.1a: Guitar 1 with clean tone (Play 16 times)
================================================================================


||----------------------------| |||----------------------------| |||----------------------------|*|||----------------------------|*|||--2-----2----2-2-----2----2-| |||--0--0--0-0--0-0--0--0-0--0-| | P.M...... .........
================================================================================ Riff 1.1b: Guitars 2 with clean tone (Play 2 times) ================================================================================
||------------------------------|------------------------------|||------------------------------|------------------------------|||------------------------------|------------------------------|||------------------------------|------------------------------|||--10--10-10--10-10--10-10--10-|--10--10-10--10-10--10-10--10-|||--0-------------0-------------|--0--------------0------------| .. .. .. .. .. ..
|-------------------------|-------------------------||-------------------------|-------------------------||-------------------------|-------------------------||-------------------------|-------------------------||--10--9-9--9--9--9--9--9-|--9--9--9--9--9--9--9--9-||--0---0-------0----------|--0-----------0----------| ... ... ... ... ...
|-----------------------------|------------------------------||-----------------------------|------------------------------||-----------------------------|------------------------------||-----------------------------|------------------------------||--9--10-10--10-10--10-10--10-|--10--10-10--10-10--10-10--10-||--0------------0-------------|---0-------------0------------| .. .. .. ..
|-------------------------|---------------------------| ||-------------------------|---------------------------| ||-------------------------|---------------------------|*||-------------------------|---------------------------|*||--10--9-9--9--9--9--9--9-|--9\ -2--2--2--2--2--2--2/ | ||--0---0-------0----------|--0------------0-----------| | ... ... ... ... ...
================================================================================ Riff 1.2a: Guitar 3 with heavy distortion (Play 16 times) [ Tempo = 80 BPM ] ================================================================================
||------------------------| |||------------------------| |||------------------------|*|||--2----------2----------|*|||--2--2-2-2-2-2--2-2-2-2-| |||--0--0-0-0-0-0--0-0-0-0-| | ....... .......
================================================================================ Riff 1.2b: Guitar 4 with heavy distortion (Play 2 times) ================================================================================
||--------------------------------|--------------------------------|||--------------------------------|--------------------------------|||--------------------------------|--------------------------------|||--------------------------------|--------------------------------|||-----10-10-10-10----10-10-10-10-|-----10-10-10-10----10-10-10-10-|||--0--------------0--------------|--0--------------0--------------| ........... ........... ........... ...........
|--------------------------------|--------------------------------||--------------------------------|--------------------------------||--------------------------------|--------------------------------||--------------------------------|--------------------------------||----9-9-9--9--9-----9--9--9--9--|-----9--9--9--9-----9--9--9--9--||--0-0-0----------0--------------|--0--------------0--------------| ....... .......... .......... ..........
|--------------------------------|--------------------------------||--------------------------------|--------------------------------||--------------------------------|--------------------------------||--------------------------------|--------------------------------||-----10-10-10-10----10-10-10-10-|-----10-10-10-10----10-10-10-10-||--0--------------0--------------|--0--------------0--------------| ........... ........... ........... ...........
|--------------------------------|------------------------| ||--------------------------------|------------------------| ||--------------------------------|------------------------|*||--------------------------------|--2----------2----------|*||----9-9-9--9--9-----9--9--9--9\ |--2--2-2-2-2-2--2-2-2-2-| ||--0-0-0----------0--------------|--0--0-0-0-0-0--0-0-0-0-| | ....... .......... ....... .......
================================================================================ Riff 2a: Guitar 3 (Play 7 times) ================================================================================
||--------------------------|--------------------------|||--------------------------|--------------------------|||--------------------------|--------------7-7-7-------|||--5-5-5-5-5-5-5-5-5-5-5-5-|--5-5-5-5-5-5-5-5-5-9-9---|||--7-7-7-7-7-7-7-7-7-7-7-7-|--7-7-7-7-7-7-7-7-7-7-7-9-|||--0-0-0-0-0-0-0-0-0-0-0-0-|--0-0-0-0-0-0-0-0-0-0-0-0-| ....................... .......................
|--------------------------|--------------------------||--------------------------|--------------------------||--------------------------|--------------------------||--------------------------|--------------------------||--9-9-9-9-9-9-9-9-9-9-9-9-|--9-9-9-6-6-6-7-7-7-9-9-0-||--7-7-7-7-7-7-7-7-7-7-7-7-|--7-7-7-7-7-7-7-7-7-7-7-0-| ....................... .......................
|--------------------------|--------------------------||--------------------------|--------------------------||--------------------------|--------------------------||--9-9-9-9-9-9-9-9-9-9-9-9-|--7-7-7-7-7-7-7-7-7-7-7-7-||--7-7-7-7-7-7-7-7-7-7-7-7-|--5-5-5-5-5-5-5-5-5-5-5-5-||--0-0-0-0-0-0-0-0-0-0-0-0-|--5-5-5-5-5-5-5-5-5-7-7-7-| ....................... .......................
|--------------------------|--------------------------| ||--------------------------|--------------------------| ||--------------------------|--------------------------|*||--5-5-5-5-5-5-5-5-5-5-5-0-|--------------------------|*||--5-5-5-5-5-5-5-5-5-5-5-0-|--5-5-5-5-5-2-4-2-2-2-2-2-| ||--3-3-3-3-3-3-3-3-3-3-3---|--2-2-2-2-2-2-2-2-2-2-2-2-| | ....................... .......................
On the 2nd, 3rd, 5th & 6th repeats (i.e. during Lead Riff 1) play the riff with the following variations:
||--------------------------|--------------------------|||--------------------------|--------------------------|||--------------------------|--------------7-7-7-------|||--5---5-5-5-5-5---5-5-5-5-|--5---5-5-5-5-5-5-5-9-9---|||--7---7-7-7-7-7---7-7-7-7-|--7---7-7-7-7-7-7-7-7-7-9-|||--0---0-0-0-0-0---0-0-0-0-|--0---0-0-0-0-0-0-0-0-0-0-| ..... ..... .................
|--------------------------|--------------------------||--------------------------|--------------------------||--------------------------|--------------------------||--------------------------|--------------------------||--9---9-9-9-9-9---9-9-9-9-|--9-9-9-6-6-6-7-7-7-9-9-0-||--7---7-7-7-7-7---7-7-7-7-|--7-7-7-7-7-7-7-7-7-7-7-0-| ..... ..... ... ... ... ...
|--------------------------|--------------------------||--------------------------|--------------------------||--------------------------|--------------------------||--9---9-9-9-9-9---9-9-9-9-|--7---7-7-7-7-7---7-7-7-7-||--7---7-7-7-7-7---7-7-7-7-|--5---5-5-5-5-5---5-5-5-5-||--0---0-0-0-0-0---0-0-0-0-|--5---5-5-5-5-5---5-7-7-7-| ..... ..... ..... .....
|--------------------------|--------------------------| ||--------------------------|--------------------------| ||--------------------------|--------------------------|*||--5---5-5-5-5-5---5-5-5-0-|--------------------------|*||--5---5-5-5-5-5---5-5-5-0-|--5-5-5-5-5-2-4-2-2-2-2-2-| ||--3---3-3-3-3-3---3-3-3---|--2-2-2-2-2-2-2-2-2-2-2-2-| | ..... ..... .......................
================================================================================ Riff 2b: Guitar 4 (Play 7 times) [Note the slight variation in bars 1 & 2] ================================================================================
||--------------------------|--------------------------|||--------------------------|--------------------------|||--------------------------|--------------7-7-7-------|||--9-9-9-9-9-9-9-9-9-9-9-9-|--9-9-9-9-9-9-9-9-9-9-9---|||--7-7-7-7-7-7-7-7-7-7-7-7-|--7-7-7-7-7-7-7-7-7-7-7-9-|||--0-0-0-0-0-0-0-0-0-0-0-0-|--0-0-0-0-0-0-0-0-0-0-0-0-| ....................... .......................
|--------------------------|--------------------------||--------------------------|--------------------------||--------------------------|--------------------------||--------------------------|--------------------------||--9-9-9-9-9-9-9-9-9-9-9-9-|--9-9-9-6-6-6-7-7-7-9-9-0-||--7-7-7-7-7-7-7-7-7-7-7-7-|--7-7-7-7-7-7-7-7-7-7-7-0-| ....................... .......................
|--------------------------|--------------------------||--------------------------|--------------------------||--------------------------|--------------------------||--9-9-9-9-9-9-9-9-9-9-9-9-|--7-7-7-7-7-7-7-7-7-7-7-7-||--7-7-7-7-7-7-7-7-7-7-7-7-|--5-5-5-5-5-5-5-5-5-5-5-5-||--0-0-0-0-0-0-0-0-0-0-0-0-|--5-5-5-5-5-5-5-5-5-7-7-7-| ....................... .......................
|--------------------------|--------------------------| ||--------------------------|--------------------------| ||--------------------------|--------------------------|*||--5-5-5-5-5-5-5-5-5-5-5-0-|--------------------------|*||--5-5-5-5-5-5-5-5-5-5-5-0-|--5-5-5-5-5-2-4-2-2-2-2-2-| ||--3-3-3-3-3-3-3-3-3-3-3---|--2-2-2-2-2-2-2-2-2-2-2-2-| | ....................... .......................
On the 2nd, 3rd, 5th & 6th repeats (i.e. during Lead Riff 1) play the riff with the following variations:
||--------------------------|--------------------------|||--------------------------|--------------------------|||--------------------------|--------------7-7-7-------|||--9---9-9-9-9-9---9-9-9-9-|--9---9-9-9-9-9-9-9-9-9---|||--7---7-7-7-7-7---7-7-7-7-|--7---7-7-7-7-7-7-7-7-7-9-|||--0---0-0-0-0-0---0-0-0-0-|--0---0-0-0-0-0-0-0-0-0-0-| ..... ..... .................
|--------------------------|--------------------------||--------------------------|--------------------------||--------------------------|--------------------------||--------------------------|--------------------------||--9---9-9-9-9-9---9-9-9-9-|--9-9-9-6-6-6-7-7-7-9-9-0-||--7---7-7-7-7-7---7-7-7-7-|--7-7-7-7-7-7-7-7-7-7-7-0-| ..... ..... ... ... ... ...
|--------------------------|--------------------------||--------------------------|--------------------------||--------------------------|--------------------------||--9---9-9-9-9-9---9-9-9-9-|--7---7-7-7-7-7---7-7-7-7-||--7---7-7-7-7-7---7-7-7-7-|--5---5-5-5-5-5---5-5-5-5-||--0---0-0-0-0-0---0-0-0-0-|--5---5-5-5-5-5---5-7-7-7-| ..... ..... ..... .....
|--------------------------|--------------------------| ||--------------------------|--------------------------| ||--------------------------|--------------------------|*||--5---5-5-5-5-5---5-5-5-0-|--------------------------|*||--5---5-5-5-5-5---5-5-5-0-|--5-5-5-5-5-2-4-2-2-2-2-2-| ||--3---3-3-3-3-3---3-3-3---|--2-2-2-2-2-2-2-2-2-2-2-2-| | ..... ..... .......................
================================================================================ Lead Riff 1: Guitar 5 with heavy distortion (Play 2 times) ================================================================================
1 2 3||-------------------------|----------------------|-----------------|||-------------------------|----------------------|-----------------|||-------------------------|----------------------|-----------------|||-------------------------|----------------------|-----------1--2--|||--10----------10h 12p 10-|--9----(9)\ 7----(7)\ |--2--------------|||-------------------------|----------------------|-----------------|
4 5 6|---------------------------|-----------------------|--------------------------||---------------------------|-----------------------|--------------------------||---------------------------|--------4--4---4h 5--4-|-(5)-5p 4-----------------||--(2/4)~~----2---4p 2-1--2-|-(2)-------------------|----------7--5---5h 7--5~~||---------------------------|-----------------------|--------------------------||---------------------------|-----------------------|--------------------------|
7 8 9|-----------------|----------------------|--------------------||-----------------|----------------------|--------------------||-----------------|----------------------|--9~~~-------7--4~~-||-(5)~~------(5)\ |--5--7--5--4~~---(4p0)|--------------------||-----------------|----------------------|--------------------||-----------------|----------------------|--------------------|
10 11 12|-----------------------|--------------------|------------------------||-----------------------|--------------------|------------------------||-(4)--2--4~~--4h 5--4~~|-(4)-------2-2h 4-2-|------------------------||-----------------------|--------------------|--5--4--5--(5/7)--5--4--||-----------------------|--------------------|------------------------||-----------------------|--------------------|------------------------|
13 14 15|--------------------|----------------------|--------------------||--------------------|----------------------|--------------------||--------------------|-----------7--5--4h 5-|--4~~---------4-5-4-||--2--1--2--4--2--4--|--5--4--5-------------|--------------------||--------------------|----------------------|--------------------||--------------------|----------------------|--------------------|
16 17|--------------------------||----------------| ||--------------------------||----------------| ||--2-4-2-------7-5-4-2-4-2-||----------------|*||--------5-4-5-------------||--5~~~----------|*||--------------------------||----------------| ||--------------------------||----------------| |
The lead guitar is played during the second and fourth repeats of Riff 2a & 2b ================================================================================ Riff 3.1: Guitars 3 and 4 (Play 2 times) ================================================================================
||---------------------------|--------------------------|||---------------------------|--------------------------|||---------------------------|--------------------------|||--0h2-2-2-2-2-3\2--2-2-2-2-|--0h2-2-2-2-2-3\2-2-2-2-0-|||--0 -0-0-0-0-0 --0-0-0-0-|--0 -0-0-0-0-0 -0-0-0-0-|||---------------------------|--------------------------| ..... ..... ..... .....
|--------------------------|--------------------------| ||--------------------------|--------------------------| ||--------------------------|--------------------------|*||--0h5-5-5-5-6-5-5-5-5-5-0-|--0h4-4-4-4-5-4-4-4-4-4-0-|*||--3 -3-3-3-3-3-3-3-3-3-3-|--2 -2-2-2-2-2-2-2-2-2-0-| ||--------------------------|--------------------------| | ... ........... ... ...........
================================================================================ Riff 3.2: Guitars 3 and 4 (Play 2 times) ================================================================================
||--------------------------|--------------------------|||--------------------------|--------------------------|||--------------------------|--------------------------|||--0-2-2-2-2-2-3-2-2-2-2-2-|--0-2-2-2-2-2-3-2-2-2-2-0-|||--0-0-0-0-0-0-0-0-0-0-0-0-|--0-0-0-0-0-0-0-0-0-0-0-0-|||--------------------------|--------------------------| ....................... .......................
|--------------------------|--------------------------| ||--------------------------|--------------------------| ||--------------------------|--------------------------|*||--0-5-5-5-5-6-5-5-5-5-5-0-|--0-4-4-4-4-5-4-4-4-4-4-0-|*||--3-3-3-3-3-3-3-3-3-3-3-3-|--2-2-2-2-2-2-2-2-2-2-2-0-| ||--------------------------|--------------------------| | ....................... .......................
================================================================================ Riff 3.3: Guitars 3 and 4 (Play 2 times) ================================================================================
||--------------------------|--------------------------|||--------------------------|--------------------------|||--------------------------|--------------------------|||--3-3-3-3-3-3-3-3-3-3-3-3-|--2-2-2-2-2-2-2-2-2-2-2-0-|||--5-5-5-5-5-5-5-5-5-5-5-5-|--3-3-3-3-3-3-3-3-3-3-3-0-|||--------------------------|--------------------------| ....................... .......................
|--------------------------|--------------------------||--------------------------|--------------------------||--------------------------|--------------------------||--5-5-5-5-5-5-5-5-5-5-5-5-|--4-4-4-4-4-4-4-4-4-4-4-0-||--7-7-7-7-7-7-7-7-7-7-7-7-|--5-5-5-5-5-5-5-5-5-5-5-5-||--------------------------|--------------------------| ....................... .......................
|--------------------------|--------------------------||--------------------------|--------------------------||--------------------------|--------------------------||--3-3-3-3-3-3-3-3-3-3-3-3-|--2-2-2-2-2-2-2-2-2-2-0-0-||--5-5-5-5-5-5-5-5-5-5-5-5-|--3-3-3-3-3-3-3-3-3-3-0-0-||--------------------------|--------------------------| ....................... .......................
|---------------------------|--------------------------| ||---------------------------|--------------------------| ||---------------4-----4-----|----4-4-4-4-4-4-----------|*||--0h 2-2-2-2-2-2-2-2-2-2-2-|--2-2-2-2-2-2-2-2-2-2-2-2-|*||--0 -0-0-0-0-0-0-0-0-0-0-|--0-------------0-0-0-0-0-| ||---------------------------|--------------------------| | ... ... ... ... ... .....
================================================================================ Guitars 3 and 4 play Riff 3.2 twice ================================================================================ ================================================================================ Guitars 3 and 4 pay Riff 3.3 twice ================================================================================ ================================================================================ Riff 4: Guitars 3 and 4 (Play 6 times) [ Tempo = 74 BPM ] ================================================================================
||----------------------|-----------------------|----------------------|||----------------------|-----------------------|----------------------|||-----(2)-----5--5--4--|--4-------2------------|-----(2)-----5--5--4--|||--0---2---2--2--2--2--|--2------(2)--5~~--(5)\|--0---2---2--2--2--2--|||--0---0---0--3--3--2--|--2--------------------|--0---0---0--3--3--2--|||----------------------|-----------------------|----------------------| ... ...
|_3_||---------------------|----------------------|-----------------------||---------------------|----------------------|-----------------------||--4------------------|-----(2)-----5--5--4--|--4-----(4/5\4)--------||--2---------5~~--(5)\|--0---2---2--2--2--2--|--2------2 ---------||--2------2-----------|--0---0---0--3--3--2--|--2--------------3-----||---------------------|----------------------|--------------------0--| ... ... ...
|------------------|--------------------| ||------------------|--------------------| ||------------------|--------------------|*||--------0---------|--------------------|*||-----2-------2----|-----3--3--2--2--3--| ||--3---------------|--1-----------------| |
After the 6th repeat, play and hold the following chord:
|----------|||----------|||--2-------|||--2-------|||--0-------|||----------||
================================================================================ Riff 5: Guitars 1 and 2 (Repeats outlined below) [ Tempo = 84 ] ================================================================================ * Let notes ring wherever possible * ----------- Part 1: X 1 -----------
| |--------------------------|-----------------------------|| |--------------------------|-----------------------------||4|--------------------------|-----------------------------||/|-----9-----9-----9-----9--|-----10-----10- \ 7-----7--||4|--0-----0-----0-----0-----|--0------0------0------0-----|| |--------------------------|-----------------------------|
|--------------------------|--------------------------||--------------------------|--------------------------||-----9-----9-----9-----9--|-----9-----9-----9-----9--||--------------------------|--------------------------||--0-----0-----0-----0-----|--0-----0-----0-----0-----||--------------------------|--------------------------|
|--------------------------|-----------------------------||--------------------------|-----------------------------||--------------------------|-----------------------------||-----9-----9-----9-----9--|-----10-----10- \ 7-----7--||--0-----0-----0-----0-----|--0------0------0------0-----||--------------------------|-----------------------------|
|--------------------------|--------------------------|||--------------------------|--------------------------|||-----9-----9-----9-----9--|-----9-----9-----9-----9--|||--------------------------|--------------------------|||--0-----0-----0-----0-----|--0-----0-----0-----0-----|||--------------------------|--------------------------||
----------- Part 2: X 1 [ Tempo = 90 BPM ] -----------
|------------------------------|--------------------------||------------------------------|--------------------------||-----10-----10-----10-----10--|-----7-----7-----7-----7--||--7------7------7------7------|--7-----7-----7-----7-----||------------------------------|--------------------------||------------------------------|--------------------------|
|--------------------------|--------------------------||--------------------------|--------------------------||-----9-----9-----9-----9--|-----9-----9-----9-----9--||--7-----7-----7-----7-----|--7-----7-----7-----7-----||--------------------------|--------------------------||--------------------------|--------------------------|
|------------------------------|--------------------------||------------------------------|--------------------------||------------------------------|--------------------------||-----10-----10-----10-----10--|-----9-----9-----9-----9--||--0------0------0------0------|--0-----0-----0-----0-----||------------------------------|--------------------------|
|--------------------------|--------------------------|||--------------------------|--------------------------|||--------------------------|--------------------------|||-----7-----7-----7-----7--|-----7-----7-----7-----7--|||--0-----0-----0-----0-----|--0-----0-----0-----0-----|||--------------------------|--------------------------||
---------- Part 1 X 1 [ Tempo = 94 BPM ] ---------- ---------- Part 2 X 1 [ Tempo = 103 from last 2 bars onwards ] ---------- During last 2 bars, guitars 3 and 4 play the following:
||--------------------------|--------------------------||||--------------------------|--------------------------||||--------------------------|--------------------------||||-----2--2--2-----2--2--2--|-----2--2--2-----2--2--2--||||-----0--0--0-----0--0--0--|-----0--0--0-----0--0--0--||||--------------------------|--------------------------|| ....... ....... ....... .......
================================================================================ Riff 6: Guitars 2 and 3 (Repeats outlined below) ================================================================================ ----------- Part 1: X 1 -----------
||--------------------------|----------------------------|||--------------------------|----------------------------|||--------------------------|----------------------------|||-----9-----9-----9-----9--|-----10-----10-----7-----7--|||--0-----0-----0-----0-----|--0------0------0-----0-----|||--------------------------|----------------------------| ... ... ... ... ... ... ... ...
|---------------------------|--------------------------||---------------------------|--------------------------||---------------------------|--------------------------||(7)\ -2--2--2-----2--2--2--|-----2--2--2-----2--2--2--||------0--0--0-----0--0--0--|-----0--0--0-----0--0--0--||---------------------------|--------------------------| ....... ....... ....... .......
|--------------------------|----------------------------||--------------------------|----------------------------||--------------------------|----------------------------||-----9-----9-----9-----9--|-----10-----10-----7-----7--||--0-----0-----0-----0-----|--0------0------0-----0-----||--------------------------|----------------------------| ... ... ... ... ... ... ... ...
|---------------------------|--------------------------|||---------------------------|--------------------------|||---------------------------|--------------------------|||(7)\ -2--2--2-----2--2--2--|-----2--2--2-----2--2--2--|||------0--0--0-----0--0--0--|-----0--0--0-----0--0--0--|||---------------------------|--------------------------|| ....... ....... ....... .......
----------- Part 2: X 1 -----------
|--------------------------|--------------------------||--------------------------|--------------------------||-----10----10----10----10-|-----7-----7-----7-----7--||-----7-----7-----7-----7--|-----7-----7-----7-----7--||--0--0--0--0--0--0--0--0--|--0--0--0--0--0--0--0--0--||--------------------------|--------------------------| ... ... ... ... ... ... ... ...
|---------------------------|--------------------------||---------------------------|--------------------------||(7)\ ----------------------|--------------------------||(7)\ -2--2--2-----2--2--2--|-----2--2--2-----2--2--2--||------0--0--0-----0--0--0--|-----0--0--0-----0--0--0--||---------------------------|--------------------------| ....... ....... ....... .......
|------------------------------|--------------------------||------------------------------|--------------------------||------------------------------|--------------------------||-----10-----10-----10-----10--|-----9-----9-----9-----9--||--0------0------0------0------|--0-----0-----0-----0-----||------------------------------|--------------------------| ... ... ... ... ... ... ... ...
|--------------------------|--------------------------|||--------------------------|--------------------------|||-----9--9--9-----9--9--9--|-----9--9--9-----9--9--9--|||(9)--7--7--7-----7--7--7--|-----7--7--7-----7--7--7--|||--------0--0--0-(0)-0--0--|--0-----0--0--0-(0)-0--0--|||--------------------------|--------------------------|| ... ... ...
----------- Part 3: X 1 (Variation of Part 1) -----------
|--------------------------|----------------------------||--------------------------|----------------------------||--------------------------|----------------------------||-----9-----9-----9-----9--|-----10-----10-----7-----7--||--0-----0-----0-----0-----|--0------0------0-----0-----||--------------------------|----------------------------| ... ... ... ... ... ... ... ...
|--------------------------|--------------------------||--------------------------|--------------------------||-----9--9--9-----9--9--9--|-----9--9--9-----9--9--9--||(7)--7--7--7-----7--7--7--|-----7--7--7-----7--7--7--||--------0--0--0-(0)-0--0--|--0-----0--0--0-(0)-0--0--||--------------------------|--------------------------| ... ... ...
|--------------------------|----------------------------||--------------------------|----------------------------||--------------------------|----------------------------||-----9-----9-----9-----9--|-----10-----10-----7-----7--||--0-----0-----0-----0-----|--0------0------0-----0-----||--------------------------|----------------------------| ... ... ... ... ... ... ... ...
|--------------------------|--------------------------|||--------------------------|--------------------------|||-----9--9--9-----9--9--9--|-----9--9--9-----9--9--9--|||(7)--7--7--7-----7--7--7--|-----7--7--7-----7--7--7--|||--------0--0--0-(0)-0--0--|--0-----0--0--0-(0)-0--0--|||--------------------------|--------------------------|| ... ... ...
----------- Part 4: X 1 (Variation of Part 2) -----------
|--------------------------|--------------------------||--------------------------|--------------------------||-----10----10----10----10-|-----7-----7-----7-----7--||-----7-----7-----7-----7--|-----7-----7-----7-----7--||--0--0--0--0--0--0--0--0--|--0--0--0--0--0--0--0--0--||--------------------------|--------------------------| ... ... ... ... ... ... ... ...
|--------------------------|--------------------------||--------------------------|--------------------------||(7)--9--9--9-----9--9--9--|-----9--9--9-----9--9--9--||(7)--7--7--7-----7--7--7--|-----7--7--7-----7--7--7--||--------0--0--0-(0)-0--0--|--0-----0--0--0-(0)-0--0--||--------------------------|--------------------------| ... ... ...
|------------------------------|--------------------------||------------------------------|--------------------------||------------------------------|--------------------------||-----10-----10-----10-----10--|-----9-----9-----9-----9--||--0------0------0------0------|--0-----0-----0-----0-----||------------------------------|--------------------------| ... ... ... ... ... ... ... ...
|---------------------------|--------------------------|||---------------------------|--------------------------|||---------------------------|--------------------------|||(9)\ -2--2--2-----2--2--2--|-----2--2--2-----2--2--2--|||------0--0--0-----0--0--0--|-----0--0--0-----0--0--0--|||---------------------------|--------------------------|| ....... ....... ....... .......
---------- Part 3 X 1 ---------- ---------- Part 4 X 1 ---------- ---------- Part 3 X 1 ---------- ---------- Part 4 X 1 ---------- ================================================================================ Riff 7: Guitars 3 and 4 (Play 2 times) [ Tempo = 70 BPM ] ================================================================================
||-----------------------|--------------------|----------------------|||-----------------------|--------------------|----------------------|||-----------------------|--------------------|----------------------|||--2-----------------2--|--2-----------------|-----3---------3------|||--0-----------------0--|--0-----------------|--3--3------3--3------|||-----------------------|--------------------|--1--1------1--1------| ... ... ... ... ...
|__3__||-----------------------------|-------------------|-------------------||-----------------------------|-------------------|-------------------||-----------------------------|--2----------------|--2----------------||-----3------3--2h 3p 2-------|--2----------------|--2----------------||--3--3-----------------3--2--|--0----------------|--0----------------||--1--1-----------------------|-------------------|-------------------| ...
|-------------------|------------------------| ||-------------------|------------------------| ||-------------------|------------------------|*||--3----------------|-(3)--------------------|*||--3----------------|-(3)-------5---(5)\2----| ||--1----------------|-(1)--------------------| |
================================================================================ Lead riff 2: Guitar 5 (Play once through) ================================================================================
1 2||-------------------------------|-------------------------------|||-------------------------------|-------------------------------|||-----2--4--5--(5/7)--5--4--5~~-|(5)--2--4--5--(5/7)--5--4--5\ -|||-------------------------------|-------------------------------|||-------------------------------|-------------------------------|||-------------------------------|-------------------------------|
3 4 |__3__||--------------------------|-------------------------------||--------------------------|--------------6--5h 6p 5-------||-----2--4--5-----2--4--5--|-----2--4--5-------------5--4--||--3-----------3-----------|--3----------------------------||--------------------------|-------------------------------||--------------------------|-------------------------------|
5 |__3__| 6 |__3___||--------------------------------|---------------------------------||-----5--3h 5p 3-----------------|---------------------------------||--2-------------5--4--2--4--5~~-|(5)--5--4h 5p (4\2)--------------||--------------------------------|---------------------5--2--5--3--||--------------------------------|---------------------------------||--------------------------------|---------------------------------|
7 8 |__3__||---------------------------|-----------------------------------||---------------------------|-----------------------------------||-----------0--2--4--5--4-5-|--4h 5p 4-2--4--5--7--(7)\4~~--(4)\||--0--2--3------------------|-----------------------------------||---------------------------|-----------------------------------||---------------------------|-----------------------------------|
9 10|------------------------------|-------------------------------||------------------------------|-------------------------------||--4--2--4--5--(5/7)--5--4--5--|(5)--2--4--5--(5/7)--5--4--5\ -||------------------------------|-------------------------------||------------------------------|-------------------------------||------------------------------|-------------------------------|
11 12 |__3__||--------------------------|-------------------------------||--------------------------|--------------6--5h 6p 5-------||-----2--4--5-----2--4--5--|-----2--4--5-------------5--4--||--3-----------3-----------|--3----------------------------||--------------------------|-------------------------------||--------------------------|-------------------------------|
13 |__3__| 14|--------------------------------|--------------------------||-----5--3h 5p 3-----------------|--------------------------||--2-------------5--4--2--4--5~~-|(5)--5--4--2--------------||--------------------------------|--------------5--2--5--3--||--------------------------------|--------------------------||--------------------------------|--------------------------|
15|------------------------------------------------||------------------------------------------------||--------------------0--0--2--2--4--4--5--5--4-5-||--0--0--2--2--3--3------------------------------||------------------------------------------------||------------------------------------------------| .........................................
16 |__3___||-------------------------------------|||-------------------------------------|||--4h 5p (4\2)--4--5--7--(7)\4~~--(4)\|||-------------------------------------|||-------------------------------------|||-------------------------------------||
================================================================================ Riff 8a: Guitar 3 (Play 14 times) [ Tempo = 103 BPM ] ================================================================================
|__3__| |__3__| |__3__| |__3__|||--------------------------------------|||--------------------------------------|||--------------------------------------|||--2--2--2--2--2--2--2--2--2--2--2-/7--|||--0--0--0--0--0--0--0--0--0--0--0--0--|||--------------------------------------| ...............................
|__3__| |__3__| |__3__| |___3____||-----------------------------------------||-----------------------------------------||-----------------------------------------||--7--7--7--7--7--7--7--7--7--10--10--10--||--0--0--0--0--0--0--0--0--0--0---0---8---||-----------------------------------------| .................................
|___3____| |___3____| |___3____| |___3____||-------------------------------------------------||-------------------------------------------------||-------------------------------------------------||--10--10--10--10--10--10--10--10--10--10--10--7--||--8---8---8---8---8---8---8---8---8---8---8---5--||-------------------------------------------------| ..........................................
|__3__| |__3__| |__3__| |__3__||--------------------------------------| ||--------------------------------------| ||--------------------------------------|*||--7--7--7--7--7--7--7--5--5--5--4--4--|*||--5--5--5--5--5--5--5--3--3--3--2--2--| ||--------------------------------------| | ..................................
================================================================================ Riff 8b: Guitar 4 (Repeats outlined below) ================================================================================ ---------- Part 1 X 2 ----------
|__3__| |___3___| |__3___| |___3__|||------------------------------------------|||--R --------------------------------------|||--E ------------------7-------------------|||--S -7--9--10--9--10-----10--9--10--9--7--|||--T --------------------------------------|||------------------------------------------| ................................
|__3__| |___3___| |__3___| |___3__||------------------------------------------||--R --------------------------------------||--E -9--7-------------7-------------------||--S -------10--9--10-----10--9--10--9-----||--T -----------------------------------8--||------------------------------------------| ................................
|__3__| |__3__| |___3__| |__3__| |__3__| |__3__| |__3__| |__3__||--------------------------------------|-------------------------------------| ||-R -----------------------------------|-R ----------------------------------| ||-E -----------------------------------|-E ----------------------------------|*||-S -----------------------------------|-S ----------------------------------|*||-T -8--7--8--7--8--10--8--7--8--7--5--|-T -5--7--5--3--2--3--2--3--5--3--2--| ||--------------------------------------|-------------------------------------| | ............................. .............................
---------- Part 2 X 2 (Part 2 is Riff 8a) ---------- ---------- Part 1 X 2 ---------- ---------- Part 2 X 2 ---------- ---------- Part 1 X 2 ---------- ---------- Part 2 X 4 ---------- ================================================================================ Lead Riff 3: Guitar 5 (Play once through) [ Enter on Bar 37 of Riff 8] ================================================================================
1 |__3__| |___3___| |__3___| |____3__|||------------------------------------------|||--R --------------------------------------|||--E ------------------7-------------------|||--S -7--9--10--9--10-----10--9--10--9--7--|||--T --------------------------------------|||------------------------------------------|
2 |__3__| |___3___| |____3___| |____3___||---------------------------------------------||--R -----------------------------------------||--E -9--7-------------12--10--9--10--9--10~~-||--S -------10--9--10-------------------------||--T -----------------------------------------||---------------------------------------------|
3 |____3___| |___3____| |___3____| |___3____||-------------------------------------------------||-------------------------10------10--12--10--12--||(10)--9--10--12--10--12------12------------------||-------------------------------------------------||-------------------------------------------------||-------------------------------------------------|
4 |_3__| |___3___| |__3__||____3____| 5|-----------------------------------------|--------------------------||-(12/13)--12----------12-----13----------|--13----12----------------||-----------------14---------------14~~---|--------------14----------||-----------------------------------------|--------------------14----||-----------------------------------------|--------------------------||-----------------------------------------|--------------------------|
6 |______3____| |____3____| 7 |___3____| |__3___||----------------------------------|-----------------------------------||----------------------------------|-----------------------------------||--12----10----9----7----9----7----|--10~~-------10--12--10--9--10--9--||----------------------------------|-----------------------------------||----------------------------------|-----------------------------------||----------------------------------|-----------------------------------|
8 |__3__| |__3__| |__3__| |__3__| 9|--------------------------------------|-----------------------------||--------------------------------------|-----------------------------||--7--9--7--5--4--5--7-----5--4--------|-----------------------------||--------------------------------7-----|--10-(10)\9--(9)\7--(7)\2----||--------------------------------------|-----------------------------||--------------------------------------|-----------------------------|
10 |____3____| 11 |___3__| |__3__||------------------------------|-------------------------------||------------------------------|-------------------------------||------------------------------|-------------------------------||--5---(5)\3-------------------|-------------------------------||---------------5----7----5----|--8~~-------8--10--8--7--8--7--||------------------------------|-------------------------------|
.................12 |__3__| |__3__| |__3__| |__3__||--------------------------------------||--------------------------------------||--------------------------------------||--------------------------------------||--5--7--5--3--2--3--5-----3--2--0-----||--------------------------------------| ..................
13 |__3__| |___3___| |__3__||------------------------------------------||--R ------------------8~~-----------------||--E --------------------------------------||--S -7--9--10--9--10-------------------7--||--T --------------------------------------||------------------------------------------|
14 |__3__| |___3___| |___3___||-------------------------------------------||----------------------8~~------------------||------------------------------------9--10--||--9--7--9--10--9--10-----------------------||-------------------------------------------||-------------------------------------------|
15 16|-------------------------------------|---------------------------------||-----------------13---(13/15)--13----|--12~~-------12h13---12----------||--(10/14)~~--------------------------|---------------------------14----||-------------------------------------|---------------------------------||-------------------------------------|---------------------------------||-------------------------------------|---------------------------------|
17 18 |______3___| |___3__| |__3___| |__3___||-----------------------|----------------------------------------------||-----------------------|----------------------------------------------||-------------9~~-------|-(10/12)-10--9--10--9--7--9--7------7---------||--10~~-----------------|--------------------------------10-----10--9--||-----------------------|----------------------------------------------||-----------------------|----------------------------------------------|
19 |___3__| |__3___| |__3___| |___3__||------------------------------------------||------------------------------------------||------------------------------------------||--10--9--7--9--7------7-------------------||------------------10-----10--8--10--8--7--||------------------------------------------|
20 |__3__| |__3__| |__3__| |__3__||--------------------------------------|||--------------------------------------|||--------------------------------------|||--------------------------------------|||--8--7--5--7--5--3--5--3--2--3--2--0--|||--------------------------------------||
================================================================================ Riff 9: Guitars 3 and 4 (Play 4 times until fade) [ Variation of Riff 8b ] ================================================================================
|__3__| |___3___| |___3___| |___3__|||------------------------------------------|||--R --------------------------------------|||--E ------------------7-------------------|||--S -7--9--10--9--10-----10--9--10--9--7--|||--T --------------------------------------|||------------------------------------------|
|__3__| |___3___| |___3__| |___3__||------------------------------------------||--R --------------------------------------||--E -9--7-------------7-------------------||--S -------10--9--10-----10--9--10--9-----||--T -----------------------------------8--||------------------------------------------|
|__3__| |__3__| |___3__| |__3__| |__3__| |__3__| |__3__| |__3__||--------------------------------------|-------------------------------------| ||-R -----------------------------------|-R ----------------------------------| ||-E -----------------------------------|-E ----------------------------------|*||-S -----------------------------------|-S ----------------------------------|*||-T -8--7--8--7--8--10--8--7--8--7--5--|-T -5--7--5--3--2--3--2--3--5--3--2--| ||--------------------------------------|-------------------------------------| |
Note: this variation of the riff is NOT palm muted ================================================================================ End ================================================================================ Tab summary: Riff 1.1a X 16 + Riff 1.1b X 2 Riff 1.2a X 16 + Riff 1.2b X 2 Riff 2a + 2b X 7 + Lead Riff 1 X 2 Riff 3.1 X 2 Riff 3.2 X 2 Riff 3.3 X 2 Riff 3.2 X 2 Riff 3.3 X 2 Riff 4 X 6 Riff 5: Part 1 X 1 Part 2 X 1 Part 1 X 1 Part 2 X 1 Riff 6: Part 1 X 1 Part 2 X 1 Part 3 X 1 Part 4 X 1 Part 3 X 1 Part 4 X 1 Part 3 X 1 Part 4 X 1 Riff 7 X 2 + Lead Riff 2 X 1 Riff 8a X 14 + Riff 8b: Part 1 X 2 Part 2 X 2 Part 1 X 2 Part 2 X 2 Part 1 X 2 Part 2 X 4 + Lead Riff 3 Riff 9 X 4 End ----------------------- Corrections (02/12/06): ----------------------- * Corrected Riffs 2a and 2b ----------------------- Corrections (11/09/06): ----------------------- * Corrected bars 13 and 14 of Lead Riff 3 ----------------------- Corrections (08/08/06): ----------------------- * Added triplets to Riffs 8 & 9, and Lead Riff 3
Please rate this tab:
x1.0