Mourning Beloveth – The Words That Crawled tab

================================================================================
                       M O U R N I N G   B E L O V E T H

                                       -

                  T H E   W O R D S   T H A T   C R A W L E D
================================================================================


                                THE SULLEN SULCUS
                           (c) Sentinel Records - 2002
                        http://www.mourningbeloveth.com/


                              Tune Down 1 & 1/2 Steps
                                  C# F# B E G# C#

                                  Tempo = 70 BPM
                               Time Signature = 4/4



                          -----------------------------
                                 Transcribed by

                                 PADDY MCMULLAN
                           stinkypoohpants@yahoo.co.uk

                                   Version 1.3
                      (Corrections Outlined at Bottom of Tab)
                             -----------------------

                             Tablature Symbols Used:


 P.M...    -  Palm Mute
 p         -  Pull-Off
 h         -  Hammer-On
 A.H       -  Artificial Harmonic/Pinch Harmonic
 (/)       -  Legato Slide (Blank space indicates length of slide)
 \         -  Slide Down to/Down From (Blank space indicates length of slide)
 /         -  Slide Up To/Up From (Blank space indicates length of slide)
 ( )       -  Ghost Note/Tied Note/Implied Note
 REST      -  Rest and sustain rest for duration of blank space
 ~~        -  Vibrato
 |_3_|     -  Triplet Notes



================================================================================
Intro 1.1: Guitar 1 with heavy distortion (Play 4 times)
================================================================================


| |--------------| |----------|----------|----------|----------------------| || |--------------| |----------|----------|----------|----------------------| ||2|--------------|4|----------|----------|----------|----------------------|*||/|-----2-(2)----|/|----------|----------|----------|-------------2-(2)----|*||4|--3-(3)-3--2--|4|-(2)------|-(2)------|-(2)------|-(2)------3-(3)-3--2--| || |--------------| |--0-------|-(0)------|-(0)------|-(0)------------------| |
Play the first 2/4 bar once only. ================================================================================ Intro 1.2: Guitar 3 with clean tone (Play once) ================================================================================ *Let notes ring wherever possible*
||------------------------|----------------------|------------------------|||------------------------|----------------------|------------------------|||------------------------|----------------------|------------------------|||--------2--4----2----4--|--(4)--5--------------|--------2--4----2----4--|||-----2------------------|----------------------|-----2------------------|||--0---------------------|----------------------|--0---------------------|
|---------------------------|------------------------|-------------------------||---------------------------|------------------------|-------------------------||---------------------------|------------------------|-----------4----5----4---||--(4)--5--2-------2--------|--------2--4----2----4--|-(4)--5----------------5-||---------------3-----3--2--|-----2------------------|-------------------------||---------------------------|--0---------------------|-------------------------|
|---------------------------|--------------------------|||---------------------------|--------------------------|||-----------4---------------|--------------------------|||-----2----------4----(4/5)-|--(5)--2------2--2--2--2--|||--------2------------------|--------------3--3--3--2--|||--0------------------------|--------------------------||
This riff plays over the last two repeats of guitar 1's part. ================================================================================ Intro 1.3: Guitar 2 with heavy distortion (Play once) ================================================================================
||----------------------||||--R -------------||||--E -------------||||--S -2--2--2--2--||||--T -3--3--3--2--||||----------------------||
Play this bar durinng the last bar of guitar 1 and 3's parts. ================================================================================ Riff 1a: Guitar 1 (Play once through) ================================================================================
||-------------------------|---------------------------|||-------------------------|---------------------------|||-------------------------|---------------------------|||--------2-2h4----2----4--|---((4)/5)~~----------(5)\-|||-----2-------------------|---------------------------|||--0----------------------|---------------------------|
|------------------------|---------------------------|------------------------||------------------------|---------------------------|------------------------||------------------------|---------------------------|------------------------||--------2h 4----2----4--|--(4)--5--2-------2-(2)----|--------2h 4----2----4--||-----2------------------|---------------3-(3)-3--2--|-----2------------------||--0---------------------|---------------------------|--0---------------------|
|-------------------------|----------------------------------------------------||-------------------------|-----------0---------------|------------------------||-----------4----5----4---|---------------------------|------------------------||-(4)--5----------------5-|--------2-------4----(4/5)-|-(5)--2---------2-(2)---||-------------------------|-----2---------------------|-------------3-(3)-3--2-||-------------------------|--0------------------------|------------------------|
|-------------------------|--------------------------|-------------------------||-------------------------|--------------------------|-------------------------||-------------------------|--------------------------|-------------------------||--------2-2h4----2----4--|---((4)/5)~~----------(5)\|--------2-2h4----2----4--||-----2-------------------|--------------------------|-----2-------------------||--0----------------------|--------------------------|--0----------------------|
|---------------------------|-------------------------|-----------------------||---------------------------|-------------------------|-----------------------||---------------------------|-------------------------|---------4----5----4---||--(4)--5--2-------2-(2)----|--------2-2h4----2----4h | 5----------------5-||---------------3-(3)-3--2--|-----2-------------------|-----------------------||---------------------------|--0----------------------|-----------------------|
|---------------------------|----------------------||-----------0---------------|----------------------||---------------------------|----------------------||--------2-------4----(4/5)-|--(5)--2--------------||-----2---------------------|----------------------||--0------------------------|----------------------|
================================================================================ Riff 1b: Guitar 2 (Play twice) ================================================================================
||---------------|-------------------------|---------------|||---------------|-------------------------|---------------|||---------------|-------------------------|---------------|||--2------------|--(2)-----------2-(2)----|--2------------|||--2------------|--(2)--------3-(3)-3--2--|--2------------|||--0------------|--(0)--------------------|--0------------|
|-------------------------|-------------------|------------------||-------------------------|-------------------|------------------||-------------------------|-------------------|------------------||--(2)-----------2-(2)----|--2----------------|--(2)-------------||--(2)--------3-(3)-3--2--|--2----------------|--(2)-------------||--(0)--------------------|--0----------------|--(0)-------------|
|-------------------|-------------------------| |----------||-------------------|-------------------------| |----------||-------------------|-------------------------|*|----------||--2----------------|--(2)-----------2-(2)----|*|--2-------||--2----------------|--(2)--------3-(3)-3--2--| |--2-------||--0----------------|--(0)--------------------| |--0-------|
Ignore the last bar until the end ================================================================================ Riff 2a: Guitar 1 (Play once through) ================================================================================
||-----------|-----------------------------|---------------------|||-----------|-----------------------------|---------------------|||-----------|-----------------------------|---------------------|||--2--------|--(2)--2--4--4h5----4----4h5-|--4------------4--5--|||-----------|-----------------------------|---------------------|||-----------|-----------------------------|---------------------|
|------------------------------|---------|-----------------------------||------------------------------|---------|-----------------------------||------------------------------|---------|-----------------------------||--(5/7)---------((7)\5)-4--7--|--2------|--(2)--2--4--4h5----4----4h5-||------------------------------|---------|-----------------------------||------------------------------|---------|-----------------------------|
|---------------------|----------------------------||---------------------|----------------------------||---------------------|----------------------------||--4------------4--5--|--((5)/7)---------5--4h5p0--||---------------------|----------------------------||---------------------|----------------------------|
| |------------------------------|--------------------------------|| |------------------------------|--------------------------------||6|------------------------------|--------------------------------||/|------------------------------|--------------------------------||4|--2-------------2h3----2------|--(2)-------------2h3----2------|| |------------------------------|--------------------------------|
|-------------------------------| |---------------------|---------------------||-------------------------------| |---------------------|---------------------||-------------------------------|4|---------------------|---------------------||-------------------------------|/|---------------------|---------------------||-(2)-------------2h3----2------|4|-3------------2--(3/ | 5)----------3--2--3-||-------------------------------| |---------------------|---------------------|
|-----------|-----------------------------|---------------------||-----------|-----------------------------|---------------------||-----------|-----------------------------|---------------------||--2--------|--(2)--2--4--4h5----4----4h5-|--4------------4--5--||-----------|-----------------------------|---------------------||-----------|-----------------------------|---------------------|
|---------------------------|-----------|-----------------------------||---------------------------|-----------|-----------------------------||---------------------------|-----------|-----------------------------||-((5)/7)---------5--4h5-0--|--2--------|--(2)--2--4--4h5----4----4h5-||---------------------------|-----------|-----------------------------||---------------------------|-----------|-----------------------------|
|---------------------|----------------------------||---------------------|----------------------------||---------------------|----------------------------||--4------------4--5--|--((5)/7)---------5--4h5p0--||---------------------|----------------------------||---------------------|----------------------------|
| |------------------------------|--------------------------------|| |------------------------------|--------------------------------||6|------------------------------|--------------------------------||/|------------------------------|--------------------------------||4|--2-------------2h3----2------|--(2)-------------2h3----2------|| |------------------------------|--------------------------------|
|-------------------------------| |---------------------|---------------------|||-------------------------------| |---------------------|---------------------|||-------------------------------|4|---------------------|---------------------|||-------------------------------|/|---------------------|---------------------|||-(2)-------------2h3----2------|4|-3------------2--(3/ | 5)----------3--2--0-|||-------------------------------| |---------------------|---------------------||
================================================================================ Riff 2b: Guitar 3 (Play twice) ================================================================================ *Let notes ring wherever possible*
||--------------------------|--------------------------|||--------------------------|--------------------------|||--------------0-----------|--------------0-----------|||--------9--------9-----9--|--------9--------9-----9--|||-----7--------------7-----|-----7--------------7-----|||--0--------0--------------|--0--------0--------------|
|--------------------------------|--------------------------------||--------------------------------|--------------------------------||-----------------0--------------|-----------------0--------------||------0-------------------------|------0-------------------------||---------12---------12------12--|---------12---------12------12--||--10---------10---------10------|--10---------10---------10------|
|--------------------------|--------------------------||--------------------------|--------------------------||--------------0-----------|--------------0-----------||--------9--------9-----9--|--------9--------9-----9--||-----7--------------7-----|-----7--------------7-----||--0--------0--------------|--0--------0--------------|
|--------------------------------|--------------------------------||--------------------------------|--------------------------------||-----------------0--------------|-----------------0--------------||------0-------------------------|------0-------------------------||---------12---------12------12--|---------12---------12--9h10-9--||--10---------10---------10------|--10---------10-----------------|
|--------------------------------------||--------------------------------------||--------------0--------0-----------0--||--------4--------4--------4-----4-----||-----2-----2--------2--------2--------||--0-----------------------------------|
|--------------------------------------||-----------------------------0--------||--------------0--------0-----------0--||--------4--------4--------4-----4-----||-----2-----2--------2-----------------||--0-----------------------------------|
|--------------------------------------|--------------------------||-----------------------------0--------|--------------------------||--------------0-----------0--------0--|--------------0-----------||--------4--------4-----4--------4-----|-----5-----5-----5--------||-----2-----2--------2-----------------|--3-----3-----------2--3--||--0-----------------------------------|--------------------------|
|--------------------------| ||--------------------------| ||--------------0-----------|*||-----7-----7-----7-----7--|*||--5-----5-----------5-----| ||--------------------------| |
================================================================================ Riff 3: Guitars 1 and 2 (Play 8 times) [Tempo = 90 BPM] ================================================================================ *Let notes ring wherever possible*
| |-----------0--------|--------------------|-------------------|| |--------------------|--------------------|----------6--------||3|-----5--------5-----|-----------9--------|-------------7-----||/|--------7-----------|-----9--------9--0--|--0----0--------0--||4|--0--------------0--|--7-----7-----------|-------------------|| |--------------------|--------------------|-------------------|
|--------------------|------------------|-----------------||--------------------|------------------|--0--------------||-----5--------4-----|----------2-------|---------2-------||--7-----7\ 5-----5--|-----3---------3--|--------------3--||--0-----------------|--0---------------|-----------------||--------------------|------------------|-----------------|
|------------------|-----------------| ||------------------|--0--------------| ||----------2-------|---------2-------|*||-----3---------3--|--------------3--|*||--0---------------|-----------------| ||------------------|-----------------| |
================================================================================ Guitars 1 and 2 play riff 1a and 1b, with variations shown for guitar 1 below ================================================================================
| |-------------------------|---------------------------|| |-------------------------|---------------------------||4|-------------------------|---------------------------||/|--------2-2h4----2----4--|---((4)/5)~~----------(5)\-||4|-----2-------------------|---------------------------|| |--0----------------------|---------------------------|
|-------------------------|------------------------||-------------------------|------------------------||-------------------------|------------------------||--------2-2h4----2----4h | 5--2-------2-(2)----||-----2-------------------|------------3-(3)-3--2--||--0----------------------|------------------------|
|-------------------------|-----------------------||-------------------------|-----------------------||-------------------------|---------4----5----4---||--------2-2h4----2----4h | 5----------------5-||-----2-------------------|-----------------------||--0----------------------|-----------------------|
|---------------------------|-------------------------|------------------------||-----------0---------------|-------------------------|------------------------||---------------------------|-------------------------|------------------------||-----2----------4----(4/5)-|-(5)--2---------2-(2)----|--------2--4----2----4--||--------2------------------|-------------3-(3)-3--2--|-----2------------------||--0------------------------|-------------------------|--0---------------------|
|----------------------|-------------------------|---------------------------||----------------------|-------------------------|---------------------------||----------------------|-------------------------|---------------------------||---((4)/5)~~----------|--------2-2h4----2----4--|--(4)--5--2-------2-(2)----||----------------------|-----2-------------------|---------------3-(3)-3--2--||------------------x-7\|--0----------------------|---------------------------|
|-------------------------|-----------------------||-------------------------|-----------------------||-------------------------|---------4----5----4---||--------2-2h4----2----4h | 5----------------5-||-----2-------------------|-----------------------||--0----------------------|-----------------------|
|---------------------------|--------------------------|||-----------0---------------|--------------------------|||---------------------------|--------------------------|||--------2-------4----(4/5)-|--(5)--2---------2-(2)----|||-----2---------------------|--------------3-(3)-3--2--|||--0------------------------|--------------------------||
================================================================================ Riff 4: Guitars 1 and 2 (Play 10 times) ================================================================================
|__3_|||-----------------------|-------------------------------| |||-----------------------|-------------------------------| |||-----------------------|-------------------------------|*|||-----------------------|-------------------------------|*|||--7\ --2----10\ --2----|--12---10--9--9h10p9------6----| |||-------0----------0----|---------------------7---------| | P.M ...
================================================================================ Lead Riff 1: Guitar 4 with heavy distortion (Play once) ================================================================================
|__3_|||-----------------------------------------|||-----------------------------------------|||-----------------------------------------|||---------------------9-10-9h10p9---------|||--7-6-7-9-10-9-10-12-------------10-7----|||-----------------------------------------|
|__3_||------------------------------------||------------------------------------||--9---9-9-11--9h11p9-8---9-11-9-8-9-||------------------------------------||------------------------------------||------------------------------------|
|__3_||-----------------------------------------||-----------------------------------------||-----------------------------------------||---------------------9-10-9h10p9---------||--7-6-7-9-10-9-10-12-------------10-7----||-----------------------------------------|
|__3_||-------------------------------------||-------------------------------------||-------------------------------------||---------------------9h10p9----------||--7-9-10-12-10-7-9-----------10-9-10-||-------------------------------------|
|__3_||-----------------------------------------||-----------------------------------------||-----------------------------------------||---------------------9-10-9h10p9---------||--7-6-7-9-10-9-10-12-------------10-7----||-----------------------------------------|
|__3_||------------------------------------||------------------------------------||--9---9-9-11--9h11p9-8---9-11-9-8-9-||------------------------------------||------------------------------------||------------------------------------|
|__3_||-----------------------------------------|------------------------------||-----------------------------------------|------------------------------||-----------------------------------------|------------------------------||---------------------9-10-9h10p9---------|------------------------------||--7-6-7-9-10-9-10-12-------------10-7----|--7-9-10-12-10-7-9----9--9-10-||-----------------------------------------|------------------------------|
|-------------------|||-------------------|||-------------------|||-------------------|||--7----------------|||-------------------||
This part plays during the last 6 repeats of riff 4, and the last bar crosses into riff 5 ================================================================================ Riff 5a: Guitar 1 (Play 4 times) ================================================================================
||-----------------------|---------------------|------------------------|||-----------------------|---------------------|------------------------|||--------2--------------|--7--------5----4----|--------2---------------|||--2--2-----2--3~~------|--7--------5----4----|--2--2-----2--3~~----2--|||--0--0-----------------|--5--------3----2----|--0--0------------------|||-----------------------|---------------------|------------------------| .... ....
|-------------------------|||-------------------------|||--7----------------------|||--7----------------------|||--5--------8-7-8--8--10\ |||-------------------------||
================================================================================ Riff 5b: Guitar 2 (Play once through) ================================================================================
|_3_|||---------------------------|---------------------|||---------------------------|---------------------|||--------2------------------|--7--------5----4----|||--2--2-----2--3~~----2h3p2-|--7--------5----4----|||--0--0---------------------|--5--------3----2----|||---------------------------|---------------------|
.... |_3_||---------------------------|-------------------------||---------------------------|-------------------------||--------2------------------|--7----------------------||--2--2-----2--3~~----2h3p2-|--7----------------------||--0--0---------------------|--5--------8-7-8--8--10\ ||---------------------------|-------------------------|
.... |_3_||---------------------------|---------------------||---------------------------|---------------------||--------2------------------|--7--------5----4----||--2--2-----2--3~~----2h3p2-|--7--------5----4----||--0--0---------------------|--5--------3----2----||---------------------------|---------------------|
.... |_3_||---------------------------|----------------------------||---------------------------|----------------------------||--------2------------------|--7-------------------------||--2--2-----2--3~~----2h3p2-|--7--------10-9-10--10--12\ ||--0--0---------------------|--5--------8--7-8---8---10\ ||---------------------------|----------------------------|
.... |_3_||---------------------------|---------------------||---------------------------|---------------------||--------2------------------|--7--------5----4----||--2--2-----2--3~~----2h3p2-|--7--------5----4----||--0--0---------------------|--5--------3----2----||---------------------------|---------------------|
.... |_3_||---------------------------|-------------------------||---------------------------|-------------------------||--------2------------------|--7----------------------||--2--2-----2--3~~----2h3p2-|--7----------------------||--0--0---------------------|--5--------8-7-8--8--10\ ||---------------------------|-------------------------|
.... |_3_||---------------------------|---------------------||---------------------------|---------------------||--------2------------------|--7--------5----4----||--2--2-----2--3~~----2h3p2-|--7--------5----4----||--0--0---------------------|--5--------3----2----||---------------------------|---------------------|
.... |_3_||---------------------------|----------------------------|||---------------------------|----------------------------|||--------2------------------|--7-------------------------|||--2--2-----2--3~~----2h3p2-|--7--------10-9-10--10--12\ |||--0--0---------------------|--5--------8--7-8---8---10\ |||---------------------------|----------------------------|| ....
================================================================================ Lead Riff 2: Guitar 4 (Play once, entering on the last 8 bars of Riffs 5a + 5b) ================================================================================
|__3__|||----------------------------|------------------------------------|||--R- -----------------|------------------------------------|||--E- -----------------|-----9-7-9----10--9h10p(9\7)-9--10\-|||--S- -10-9-10-12-10-9-|--7---------------------------------|||--T- -----------------|------------------------------------|||----------------------------|------------------------------------|
|----------------------------|-------------------------------||--R- -----------------|-------------------------------||--E- -----------------|-------------------------------||--S- -10-9-10-12-10-9-|--7-------7-10---9h(10/12)---7\||--T- -----------------|-------------------------------||----------------------------|-------------------------------|
|__3__||----------------------------|------------------------------------||--R- -----------------|------------------------------------||--E- -----------------|-----9-7-9----10--9h10p(9\7)-9--10\-||--S- -10-9-10-12-10-9-|--7---------------------------------||--T- -----------------|------------------------------------||----------------------------|------------------------------------|
|----------------------------|------------------------------|--------------|||--R- -----------------|------------------------------|--------------|||--E- -----------------|------------------------------|--------------|||--S- -10-9-10-12-10-9-|--7----(7)\5-7-(9/10)----9----|--10----------|||--T- -----------------|------------------------------|--------------|||----------------------------|------------------------------|--------------||
================================================================================ Guitar 1 plays riff 3 thirteen times ================================================================================ ================================================================================ Guitar 2 plays riff 3 four times, and then plays the following 9 times ================================================================================
||-----------------|-------------------|------------------------|||-----------------|-------------------|------------------------|||--2------2----2--|-------------------|------------------------|||--2------2----2--|--9----9--9--7--9--|--10----10--10--12--10--|||--0------0----0--|--7----7--7--5--7--|--8-----8---8---10--8---|||-----------------|-------------------|------------------------|
|-------------------|-------------------|-------------------||-------------------|-------------------|-------------------||-------------------|-------------------|-------------------||--9--10--9--7------|--------3----------|--------3----------||--7--8---7--5------|--3--3--3----3--3--|--3--3--3----3--3--||-------------------|--1--1--1----1--1--|--1--1--1----1--1--| .... .... .... ....
|-------------------|----------------------| ||-------------------|----------------------| ||-------------------|----------------------|*||--------3----------|--5---------5---------|*||--3--3--3----3--3--|--5--5-5-5--5--5-5-5--| ||--1--1--1----1--1--|--3--3-3-3--3--3-3-3--| | .... .... ..... .....
================================================================================ Lead Riff 3: Guitar 4 (Play once through) ================================================================================
1 2 3||--------------------|-----------------|--------------------|||--------------------|-----------------|--------------------|||--------------------|-----------------|------------9--9h10-|||--7------7-----9h10-|--9--------7--5--|--7------7----------|||--------------------|-----------------|--------------------|||--------------------|-----------------|--------------------|
4 5 6|-------------------|-----------------|-------------------------||-------------------|-----------------|-------------------------||--9----7-----------|-----------------|-------------------------||------------10--9--|--9--10----------|--(10)--7--9--10--9------||-------------------|-----------------|---------------------10--||-------------------|-----------------|-------------------------|
7 A.H 8 9|-----------------------|-----------------|----------------||-----------------------|-----------------|----------------||---*-------------------|-----------------|--9-------------||--12--10--9--7--9--10--|--9--------7--9--|---------7------||-----------------------|-----------------|----------------||-----------------------|-----------------|----------------|
10 11|-------------------|------------------------||-------------------|------------------------||--10----9----7--9--|--9h10------10--12--10--||-------------------|------------------------||-------------------|------------------------||-------------------|------------------------|
12 13|---------------------------------|-----------------||---------------------------------|-----------------||--9h10p9-------------------------|-----------------||---------10-9h10-12p10-9h10p9----|-----------7--9--||------------------------------10-|--8--------------||---------------------------------|-----------------|
14 |__3_| 15 16|----------------------------|-------------------------|----------------||----------------------------|-------------------------|----------------||----------------------------|-------------------------|----------------||--10--9h10p9-----12--10--9--|--(5/ 7)--9--10--12--10--|--9------9------||-------------10-------------|-------------------------|----------------||----------------------------|-------------------------|----------------|
17 18 19|------------------|-------------------|-------------------||------------------|-------------------|-------------------||--9------7--------|-------------------|-------------------||--------------10--|--9--10----9----5--|--7------7--9--10--||------------------|-------------------|-------------------||------------------|-------------------|-------------------|
20 21 22|----------------------|-------------------|-----------------------||----------------------|-------------------|-----------------------||--12--10--9--9--7--9--|--(9/10)-----------|--(10)--12--10----9----||----------------------|-------------------|-----------------------||----------------------|-------------------|-----------------------||----------------------|-------------------|-----------------------|
23 |_3_| 24 25 26|---------------------|---------------|----------------|------------------||---------------------|---------------|----------------|------------------||--7----5----5--5h7p5-|--4------------|---------9------|--7h9-------7--9--||---------------------|---------------|--7-------------|------------------||---------------------|---------------|----------------|------------------||---------------------|---------------|----------------|------------------|
27 28|------------------------|---------------------------------||------------------------|---------------------------------||--9h10------10--12--10--|--9h10p9-------------------------||------------------------|---------10-9h10-12p10-9h10p9----||------------------------|------------------------------10-||------------------------|---------------------------------|
29 30 |__3_| 31|-----------------|----------------------------|-------------------------||-----------------|----------------------------|-------------------------||-----------------|----------------------------|-------------------------||-----------7--9--|--10--9h10p9-----12--10--9--|--(5/ 7)--9--10--12--10--||--8--------------|-------------10-------------|-------------------------||-----------------|----------------------------|-------------------------|
32 33 34|----------------|------------------|--------------------||----------------|------------------|--------------------||----------------|--9------7--------|--------------------||--9------9------|--------------10--|--9--10----9\ --(5/ ||----------------|------------------|--------------------||----------------|------------------|--------------------|
35 36 37|--------------------|-------------------|---------------------||--------------------|-------------------|---------------------||--------------------|-------------------|--12----10----9------|| 7)------7--9--10--|--10----------9-10-|-----------------10--||--------------------|-------------------|---------------------||--------------------|-------------------|---------------------|
38 39 40|---------------|-----------------------|-----------------------||---------------|-----------------------|-----------------------||---------------|-----------------------|-----12--10--9---------||--7~~----------|--7\ 7--9--10--12--10--|--9-------------10--9--||---------------|-----------------------|-----------------------||---------------|-----------------------|-----------------------|
// End \\|-----------|----------|----------|----------|||-----------|----------|----------|----------|||-----------|----------|----------|----------|||--7--------|--(7)-----|--(7)-----|--(7)-----|||-----------|----------|----------|----------|||-----------|----------|----------|----------||
This part enters on the fifth repeat of riff 3 ================================================================================ Guitars 1 and 2 end on the following: ================================================================================
||---------------||||---------------||||--2------------||||--2------------||||--0------------||||---------------||
================================================================================ End ================================================================================ Tab summary: Intro 1.1 X 4 + Intro 1.2 X 1 + Intro 1.3 X 1 Riff 1a X 1 + Riff 1b X 2 Riff 2a X 1 + Riff 2b X 2 Riff 3 X 8 Riff 1a X 1 + Riff 1b X 2 Riff 4 X 10 + Lead Riff 1 X 1 Riff 5a X 4 + Riff 5b X 1 + Lead Riff 2 X 1 Riff 3 X 13 (With Additional Riff for Guitar 2) Lead Riff 3 X 1 END ----------------------- Corrections (13/07/08): ----------------------- * Corrected Intro 1.1 * Minor adjustments to layout ----------------------- Corrections (09/01/06): ----------------------- * Added Lead Riff 2 * Minor adjustments to layout ----------------------- Corrections (29/10/05): ----------------------- * Corrected slide directions * Minor adjustments to layout * Added bar numbers to longer riffs
Please rate this tab:
x1.0