Mourning Beloveth – Sinistra tab

================================================================================
                       M O U R N I N G   B E L O V E T H

                                       -

                                S I N I S T R A
                                 (BONUS TRACK)
================================================================================


                                      DUST
                           (c) Sentinel Records - 2000
                        http://www.mourningbeloveth.com/


                              Tune Down 1 & 1/2 Steps
                                  C# F# B E G# C#

                                  Tempo = 55 BPM
                               Time Signature = 3/4



                          -----------------------------
                                 Transcribed by

                                 PADDY MCMULLAN
                           stinkypoohpants@yahoo.co.uk

                                   Version 1.2
                      (Corrections Outlined at Bottom of Tab)
                             -----------------------

                             Tablature Symbols Used:


 p         -  Pull-Off
 h         -  Hammer-On
 (/)       -  Legato Slide (Blank space indicates length of slide)
 \         -  Slide Down to/Down From (Blank space indicates length of slide)
 /         -  Slide Up To/Up From (Blank space indicates length of slide)
 ( )       -  Ghost Note/Tied Note/Implied Note
 


================================================================================
Intro: Guitar 1 with clean tone (Play twice)
================================================================================


*Let notes ring*

||----------------|----------------|----------------|------------------| |||----------------|----------------|----------------|------------------| |||--4-------------|--5-------------|-----4----------|-----4--------2h4-|*|||-----2----------|-----2----------|--1-------------|--0---------------|*|||----------------|----------------|----------------|------------------| |||----------------|----------------|----------------|------------------| |
================================================================================ Riff 1: Guitar 1 (Play once through, taking note of individual repeats) ================================================================================ The first 4 bars of this riff are basically all you need, but there are some slight variations throughout the song which warrant a complete tabbing. Each figure contains a different variation. [Fig. 1] x 1
||--------------------|--------------------|--------------------|||--------------------|--------------------|--------------------|||--4--------4--4-----|--5--------5--5-----|-----4--4-----4-----|||-----2--2--------2--|-----2--2--------2--|--1--------1-----1--|||--------------------|--------------------|--------------------|||--------------------|--------------------|--------------------|
|--------------------|||--------------------|||-----4--4-----4--2--|||--0--------0--------|||--------------------|||--------------------||
[Fig. 2] x 1
||--------------------|--------------------|--------------------|||--------------------|--------------------|--------------------|||--4--------4--4-----|--5--------5--5-----|-----4--4-----4-----|||-----2--2--------2--|-----2--2--------2--|--1--------1-----1--|||--------------------|--------------------|--------------------|||--------------------|--------------------|--------------------|
|---------------------|||---------------------|||-----4--4-----4--2h4-|||--0--------0---------|||---------------------|||---------------------||
----------------- Play [Fig. 1] x 4 ----------------- [Fig. 3] x 2
||---------------------|--------------------|--------------------|||---------------------|--------------------|--------------------|||--4--------4--4----4-|--5--------5--5-----|-----4--4-----4-----|||-----2--2--------2---|-----2--2--------2--|--1--------1-----1--|||---------------------|--------------------|--------------------|||---------------------|--------------------|--------------------|
|--------------------|||--------------------|||-----4--4-----4--2--|||--0--------0--------|||--------------------|||--------------------||
----------------- Play [Fig. 1] x 1 ----------------- [Fig. 4] x 1
||---------------------|--------------------|--------------------|||---------------------|--------------------|--------------------|||--4--------4--4----4-|--5--------5--5-----|-----4--4-----4-----|||-----2--2--------2---|-----2--2--------2--|--1--------1-----1--|||---------------------|--------------------|--------------------|||---------------------|--------------------|--------------------|
|---------------------|||---------------------|||-----4--4-----4--2h4-|||--0--------0---------|||---------------------|||---------------------||
----------------- Play [Fig. 2] x 1 ----------------- ----------------- Play [Fig. 3] x 1 ----------------- ================================================================================ Lead: Guitar 2 with distortion (Play once through) ================================================================================
1 2 3||---------------------|--------------------|-----------------|||---------------------|--------------------|-----------------|||--2--4-------4---2h4-|--5--------(5/7)----|--4--------4h 5-|||--------2------------|--------------------|-----------------|||---------------------|--------------------|-----------------|||---------------------|--------------------|-----------------|
4 5 6|----------------|---------------------|---------------------||----------------|---------------------|---------------------||--4----------2--|--2--4-------4---2h4-|--5--------(5/7)---5-||----------------|--------2------------|---------------------||----------------|---------------------|---------------------||----------------|---------------------|---------------------|
7 8 9 // Let Notes Ring \\|-----------------|---------------|-------------------|------------------||-----------------|---------------|-------------------|------------------||--4--------4h 5-|--4------------|--2--4-------4-----|--5---------5-----||-----------------|---------------|--------2-------2--|---------2-----2--||-----------------|---------------|-------------------|------------------||-----------------|---------------|-------------------|------------------|
11 12 13|------------------|-----------------------|--------------------||------------------|-----------------------|--------------------||-------4--4 \-----|-------4--4---(5p4\2)--|--2--4-------4--2-4-||--1------------1--|--0--------------------|--------2-----------||------------------|-----------------------|--------------------||------------------|-----------------------|--------------------|
// Let Notes Ring \\14 15|------------------|------------------|-----------------------||------------------|------------------|-----------------------||--5---------5-----|-------4--4 \-----|-------4--4---(5p4\2)--||---------2-----2--|--1------------1--|--0--------------------||------------------|------------------|-----------------------||------------------|------------------|-----------------------|
16 17 18 19|------------------|---------------------|-----------------|-----------------||------------------|---------------------|-----------------|-----------------||--2--4------2--4--|--4--5-----(5/7)---5-|--4--------4---5-|--4--------2--2--||------------------|---------------------|-----------------|-----------------||------------------|---------------------|-----------------|-----------------||------------------|---------------------|-----------------|-----------------|
20 21 22|------------------|---------------------|-----------------||------------------|---------------------|-----------------||--2--4------2---4-|--4--5-----(5/7)---5-|--4--------4---5-||------------------|---------------------|-----------------||------------------|---------------------|-----------------||------------------|---------------------|-----------------|
23 24 25|------------------|-------------------|----------------------||------------------|-------------------|----------------------||--7-5-4-----------|-------------------|----------------------||---------------5--|--4h 5--2----2--4--|--4--5----(5/ 9)---10-||------------------|-------------------|----------------------||------------------|-------------------|----------------------|
26 27 28|------------------|-----------------|-------------------||------------------|-----------------|-------------------||------------------|-----------------|-------------------||--9--------9---10-|--9--------5--4--|--4h 5--2----2--4--||------------------|-----------------|-------------------||------------------|-----------------|-------------------|
29 30 31|----------------------|------------------|-------------------||----------------------|------------------|-------------------||----------------------|------------------|-------------------||--4--5-----(5)/9---10-|--9--------9---10-|--12-10-9----------||----------------------|------------------|-------------------||----------------------|------------------|-------------------|
32 33 34|---------------------|--------------------------|------------------------||---------------------|--------------------------|------------------------||--12--7--9----9--11--|--11--12-----(12/14)---12-|--11-------(11/12)---12-||---------------------|--------------------------|------------------------||---------------------|--------------------------|------------------------||---------------------|--------------------------|------------------------|
35 36 37|----------------------|-------------------|--------------------------||----------------------|-------------------|--------------------------||--11------11\-11--12--|--7--9------9--11--|--11--12-----(12/14)---12-||----------------------|-------------------|--------------------------||----------------------|-------------------|--------------------------||----------------------|-------------------|--------------------------|
38 39 40|--------------------|--------------------|----------------------||------------13---12-|--12----------------|----------------------||--11----------------|------------12--11--|--11--12------11--12--||--------------------|--------------------|----------------------||--------------------|--------------------|----------------------||--------------------|--------------------|----------------------|
41 42|----------------------------|---------------------------------||----------------------------|---------------------------------||--(12/14)-12--11----12--11--|--(12/16)----17--16---(16\14/16)-||----------------------------|---------------------------------||----------------------------|---------------------------------||----------------------------|---------------------------------|
43 44 45|----------------------|----------------------|--------------------------||----------------------|----------------------|--------------------------||--16----12--11----12--|--11--12------11--12--|--(12/14)-12------11--12--||----------------------|----------------------|--------------------------||----------------------|----------------------|--------------------------||----------------------|----------------------|--------------------------|
46 47|-----------------------|------------------|||-----------------------|------------------|||--(12/16)------17------|--16------12------|||-----------------------|------------------|||-----------------------|------------------|||-----------------------|------------------||
================================================================================ End ================================================================================ Tab summary: Intro x 2 Riff 1: Fig. 1 x 1 Fig. 2 x 1 Fig. 1 x 4 Fig. 3 x 2 Fig. 1 x 1 Fig. 4 x 1 Fig. 2 x 1 Fig. 3 x 1 Lead x 1 END ---------------------- Corrections (29/10/05: ---------------------- * Corrected slide directions ---------------------- Corrections (24/04/05: ---------------------- * Minor corrections to lead guitar
Please rate this tab:
x1.0