Mourning Beloveth - It Almost Looked Human tab

================================================================================
                       M O U R N I N G   B E L O V E T H

                                       -

                   I T   A L M O S T   L O O K E D   H U M A N
================================================================================


                                THE SULLEN SULCUS
                           (c) Sentinel Records - 2002
                        http://www.mourningbeloveth.com/


                              Tune Down 1 & 1/2 Steps
                                  C# F# B E G# C#

                                  Tempo = 65 BPM
                               Time Signature = 4/4



                          -----------------------------
                                 Transcribed by

                                 PADDY MCMULLAN
                           stinkypoohpants@yahoo.co.uk

                                   Version 1.4
                      (Corrections Outlined at Bottom of Tab)
                             -----------------------

                             Tablature Symbols Used:


 P.M...    -  Palm Mute
 p         -  Pull-Off
 h         -  Hammer-On
 (/)       -  Legato Slide (Blank space indicates length of slide)
 \         -  Slide Down to/Down From (Blank space indicates length of slide)
 /         -  Slide Up To/Up From (Blank space indicates length of slide)
 ( )       -  Ghost Note/Tied Note/Implied Note
 REST      -  Rest and sustain rest for duration of blank space
 ~~        -  Vibrato
 b         -  Bend up to succeeding note
 r         -  Release Bend down to succeeding note



================================================================================
Riff 1a: Guitar 1 with heavy distortion (Play 6 times)
================================================================================


1 2||---------------------------|---------------------------|||---------------------------|---------------------------|||---------------------------|---------------------------|||---------------------------|---------------------------|||--7----(5/7)-8----7--5--7\ |--5----(5/7)-8----7--5--7\-|||--5------------------------|--3------------------------|
3 4 |_3_||---------------------------|-----------------------------| ||---------------------------|-----------------------------| ||---------------------------|-----------------------------|*||---------------------------|---------------10~---9~--(9)\|*||--3----(5/7)-8----10----8--|--7--------------------------| ||--1------------------------|---------0-0-0---------------| | P.M...
On the 5th & 6th repeats, bars 2 and 3 are replaced with the supplement:
-------------- | Supplement | -------------- 2 3 |----------------------------|---------------------------| |----------------------------|---------------------------| |----------------------------|---------------------------| |----------------------------|---------------------------| |--5----(5/7)-8----10--8--7--|--8----(5/7)-8----10----8--| |--3-------------------------|---------------------------|
================================================================================ Riff 1b: Guitar 2 with heavy distortion (Play 6 times) ================================================================================
1 2||---------------------------|---------------------------|||---------------------------|---------------------------|||---------------------------|---------------------------|||---------------------------|---------------------------|||--7----(5/7)-8----7--5--7\ |--5----(5/7)-8----7--5--7\-|||--5------------------------|--3------------------------|
3 4 |_3_||---------------------------|----------------------------| ||---------------------------|----------------------------| ||---------------------------|----------------------------|*||---------------------------|------------------5----4----|*||--3----(5/7)-8----10----8--|--7----(7)\-------3----2----| ||--1------------------------|------------0-0-0-----------| | .....
On the 2nd, 4th and 6th repeats, bar 2 is replaced with the supplement:
-------------- | Supplement | -------------- 2 |----------------------------| |----------------------------| |----------------------------| |----------------------------| |--5----(5/7)-8----10--8--7\-| |--3-------------------------|
================================================================================ Riff 2a: Guitar 1 (Play 4 times) ================================================================================
||-------------------------|------------------------| |||-------------------------|------------------------| |||-------------------------|------------------------|*|||-------2------0-2-3--2---|--7----7-(7)-9----10\ --|*|||--2--------------------3-|--8---(8)-8--7----8 \ --| |||--0----------------------|-------------7----8 \ --| | ... ...
================================================================================ Riff 2b: Guitar 2 (Play twice) ================================================================================
||-------------------------|---------------------------|||-------------------------|---------------------------|||-------------------------|---------------------------|||-------2------0-2-3--2---|--7----7-(7)-9----(9/10)\ -|||--2--------------------3-|--8---(8)-8--7----(7/8 )\ -|||--0----------------------|-------------7----(7/8 )\ -| ... ...
|-------------------------|---------------------------|||-------------------------|---------------------------|||-------------------------|---------------------------|||-------2------0-2-3--2---|--3----3----2----3(3)------|||--2--------------------3-|--3----3----2----3(3)------|||--0----------------------|--1----1----0----0h1---(0)-|| ... ...
================================================================================ Riff 3a: Guitar 1 (Play once) ================================================================================
1 2 3||--------------------|----------------------|----------------------|||--------------------|----------------------|----------------------|||--5------------5----|--4--------4----------|----------------------|||--5------------5----|--4--------4----------|--2--------2----------|||--3------------3----|--2--------2----------|--2--------2----0--2--|||--3------------3----|--2--------2----2b3r2-|--0--------0----------| .....
//4 Let Ring \\ 5 |_3_||--------------------------|--------------------------||--------------------------|--------------------------||--5----------5------------|--------------------------||--5----5---------5---(5)/ | 9~~----7h9p7\5---4---5--||--3-------3-----------3---|--------------------------||--------------------------|--------------------------|
6 7 8|-----------------------------|--------------------|----------------------||-----------------------------|--------------------|----------------------||-----------------------------|--5------------5----|--4--------4----------||--(5/7)-----(7)\5--4---------|--5------------5----|--4--------4----------||------------------------5----|--3------------3----|--2--------2----------||-----------------------------|--3------------3----|--2--------2----2b3r2-|
9 //10 Let Ring \\ |----------------------|--------------------------||----------------------|--------------------------||----------------------|--5----------5------------||--2--------2----------|--5----5---------5---(5)/ ||--2--------2----0--2--|--3-------3-----------3---||--0--------0----------|--------------------------|
.... 11 12|------------------------|---------------------------||------------------------|---------------------------||---------7--7-----------|---------------------------|| 9~~-----------10---9--|--7--9----9h10-9------(9)\-||------------------------|---------------------------||------------------------|---------------------------|
13 14 15|--------------------|----------------------|----------------------||--------------------|----------------------|----------------------||--5------------5----|--4--------4----------|----------------------||--5------------5----|--4--------4----------|--2--------2----------||--3------------3----|--2--------2----------|--2--------2----0--2--||--3------------3----|--2--------2----2b3r2-|--0--------0----------| ....
//16 Let Ring \\ 17 |_3_||--------------------------|--------------------------||--------------------------|--------------------------||--5-----------------------|--------------------------||--5----5---------5---(5)/ |--9~~----7h9p7\5---4---5--||--3-------3--3--------3---|--------------------------||--------------------------|--------------------------|
18 19 20|---------------------------|--------------------|----------------------||---------------------------|--------------------|----------------------||---------------------------|--5------------5----|--4--------4----------||--(5/7)-----7\5--4---------|--5------------5----|--4--------4----------||----------------------5----|--3------------3----|--2--------2----------||---------------------------|--3------------3----|--2--------2----2b3r2-|
21 //22 Let Ring \\|----------------------|--------------------------||----------------------|--------------------------||----------------------|--5-----------------------||--2--------2----------|--5----5---------5---(5)/ ||--2--------2----0--2--|--3-------3--3--------3---||--0--------0----------|--------------------------|
23 24|------------------------|---------------------------|||------------------------|---------------------------|||---------7--7-----------|---------------------------||| 9~~-----------10---9--|--7--9----9h10-9------(9)\-|||------------------------|---------------------------|||------------------------|---------------------------||
================================================================================ Riff 3b: Guitar 2 (Play 4 times) ================================================================================
||---------------------|--------------------|----------------------|||---------------------|--------------------|----------------------|||--5--------5----5----|--4--------4--------|----------------------|||--5--------5----5----|--4--------4--------|--2--------2----------|||--3--------3----3----|--2--------2--------|--2--------2----0--2--|||--3--------3----3----|--2--------2--------|--0--------0----------| ....
|--------------------|-----------------------|-----------------------| ||--------------------|-----------------------|-----------------------| ||--------------------|-----------------------|--4------4-4-4----4----|*||--5--------5--------|--5--------5-----5--5--|--4------4-4-4----4----|*||--3--------3--------|--5--------5-----5--5--|--2------2-2-2----2----| ||--------------------|--3--------3---3-3--3--|-----------------------| | ...
================================================================================ Riff 4a: Guitar 1 (Play once) ================================================================================
|_3_|||------------------------|--------------------------|||------------------------|--------------------------|||------------------------|--2---4---5--4h5p4-2------|||--2--3--2h3-2--2~~------|--------------------------|||------------------------|--------------------------|||------------------------|--------------------------|
|_3_||------------------------|--------------------------||------------------------|--------------------------||------------------------|--------------------------||---------------2--------|--2---4---5--4h5p4-2------||--2--3--2h3-2--2--------|--------------------------||---------------0--------|--------------------------|
|_3_||------------------------|--------------------------||------------------------|--------------------------||------------------------|--2---4---5--4h5p4-2------||--2--3--2h3-2--2~~------|--------------------------||------------------------|--------------------------||------------------------|--------------------------|
|_3_||------------------------|--------------------------||------------------------|--------------------------||------------------------|--------------------------||---------------2--------|--2---4---5--4h5p4-2------||--2--3--2h3-2--2--------|--------------------------||---------------0--------|--------------------------|
|-------------------------| |-----------|||-------------------------| |-----------|||-------------------------|2|-----------|||--2--3--2h3-2--2~~----2--|/|--2--------|||----------------------0--|4|--0--------|||-------------------------| |-----------|| ...
================================================================================ Riff 4b: Guitar 2 (Play once) ================================================================================
| |------------------------|------------------|| |------------------------|------------------||4|------------------------|------------------||/|--2--3--2h3-2--2~~------|--(2)-------------||4|------------------------|------------------|| |------------------------|------------------|
|------------------------|------------------|------------------------||------------------------|------------------|------------------------||------------------------|------------------|------------------------||---------------2--------|--(2)-------------|--2--3--2h3-2--2~~------||--2--3--2h3-2--2--------|--(2)-------------|------------------------||---------------0--------|--(0)-------------|------------------------|
|------------------|------------------------|------------------||------------------|------------------------|------------------||------------------|------------------------|------------------||--(2)-------------|---------------2--------|--(2)-------------||------------------|--2--3--2h3-2--2--------|--(2)-------------||------------------|---------------0--------|--(0)-------------|
|-------------------------| |-----------|||-------------------------| |-----------|||-------------------------|2|-----------|||--2--3--2h3-2--2~~----2--|/|--2--------|||----------------------0--|4|--0--------|||-------------------------| |-----------|| ...
================================================================================ Riff 5a: Guitar 1 (Play 4 times) ================================================================================
||------------------------|-------------------|||------------------------|-------------------|||------------------------|-------------------|||--(2)----5----3----2----|--0----------------|||--(0)-------------------|-------------------|||------------------------|-------------------|
|_3_||-------------------------|------------------------| ||-------------------------|------------------------| ||-------------------------|------------------------|*||-------------------------|--2--3--3--2--2---------|*||--3--------5--3h5p3-2----|---------------------0--| ||-------------------------|------------------------| | ...
After the first repeat the ghost notes in bar 1 become ordinary notes ================================================================================ Riff 5b: Guitar 2 (Play 4 times) ================================================================================
||------------------------|----------------------|||------------------------|----------------------|||------------------------|----------------------|||--(2)----5----3----2----|----------------------|||--(0)----3----3----3----|--2------------2--0-2-|||------------------------|----------------------|
|----------------------|------------------------| ||----------------------|------------------------| ||----------------------|------------------------|*||----------------------|--2--3--3--2--2---------|*||--3--------5--5--5----|---------------------0--| ||-----------3--3--3----|------------------------| | .... ...
After the first repeat the ghost notes in bar 1 become ordinary notes ================================================================================ Play riff 1a and 1b 6 times with lead riff 1 ================================================================================ ================================================================================ Lead Riff 1: Guitar 3 with heavy distortion (Play once through) ================================================================================ * Enter on the 3rd repeat of riffs 1a & 1b *
1 2||----------------------------|------------------------------|||----------------------------|------------------------------|||----------------------------|------------------------------|||--7~~--------7-9-10-9--10p9-|-----12---------9h10-12-10--9-|||----------------------------|--10--------------------------|||----------------------------|------------------------------|
3 4|----------------------------|-----------------------------------||----------------------------|-----------------------------------||--10---9--------------------|-----------------12-10--9----------||---------10---9-7------9-10-|--9b10r9-----9-9----------12-10--9-||----------------------------|-----------------------------------||----------------------------|-----------------------------------|
5 6|------------------------|-----------------------------||------------------------|-----------------------------||-------9------9---7-----|-----------------9-9-9--7----||--7------------------10-|--9-----------------------10-||------------------------|------10-10------------------||------------------------|-----------------------------|
7 8|------------------------------------|-------------------------------||------------------------------------|-------------------------------||------------------------------------|-----------12--10--9--7-9---10-||--9--10-10-----(10)\----9-10--12-10-|--9~~--------------------------||---------------------10-------------|-------------------------------||------------------------------------|-------------------------------|
9 10|-------------------------|---------------------------||-------------------------|---------------------------||--9~~--------9-12--9--12-|--(12/14)~----12----9------||-------------------------|---------------------------||-------------------------|---------------------------||-------------------------|---------------------------|
11 12|-------------------------------|--------------------------------||-------------------------------|--------------------------------||--10-9------------------12--10-|--9------(9)\ (7\5)--4-4-5--(5)\||-------10--7------9-10---------|--------------------------------||-------------------------------|--------------------------------||-------------------------------|--------------------------------|
13 14|----------------------------|--------------------------||----------------------------|--------------------------||--2----------(2/4)-5p4--5p4-|----7-----7----4-5-7-5--4-||----------------------------|--5-----------------------||----------------------------|--------------------------||----------------------------|--------------------------|
15 16|-----------------------------|-----------------------------------|||-----------------------------|-----------------------------------|||--12---10-9------------------|-----------------------------------|||--------------10-7------9-10-|--9------9-9-9-10--((10)/12)-12----|||-----------------------------|-----------------------------------|||-----------------------------|-----------------------------------||
================================================================================ Guitars 1 & 2 play riffs 2a and 2b 8 times, ending on the following note: ================================================================================
||-------------------||||-----R- -||||-----E- -||||-----S- -||||--2--T- -||||--0----------------|| ...
================================================================================ End ================================================================================ Tab summary: Riff 1a + 1b x 6 Riff 2a x 4 + Riff 2b x 2 Riff 3a x 1 + Riff 3b x 4 Riff 4a + 4b x 1 Riff 5a + 5b x 4 Riff 1a + 1b x 6 + Lead Riff 1 x 1 Riff 2a + 2b x 8 END ----------------------- Corrections (14/03/07): ----------------------- * Corrected Riffs 2a & 2b ----------------------- Corrections (26/12/06): ----------------------- * Corrected Riff 3a ----------------------- Corrections (06/09/06): ----------------------- * Corrected bars 4 and 10 of Riff 3a ----------------------- Corrections (29/10/05): ----------------------- * Fixed incorrect slide directions * Minor adjustments to layout
Tap to rate this tab
 
# A B C D E F G H I J K L M N O P Q R S T U V W X Y Z