Just Take My Heart tab ver. 2 with lyrics by Mr Big - Easy chords and tabs for guitar

Mr Big – Just Take My Heart tab ver. 2

Just Take My Heart By Mr Big


Gtr I   (F A D G B E) - 'Lead gtr'
Gtr II  (E A D G B E) - 'Rhy. slashes'
Gtr III (E A D G B E) - 'w/ dist.'

Turning : Standard

Gtr I||--------3-0-------|-----------------|||o-----3-----3---0-|-----------------|||----5---------5---|-5---0-----------|||------------------|---7---7---------|||o-0---------------|---------7-5-7---|||------------------|---------------7-|
|-------3-0--------------|---------------8-(8)---|||-----3------------------|----------<12>--------o|||---5--------------------|-<12>------------------|||---------------<12>-----|------<7>--------------|||--------------------<7>-|----------------------o|||-0---------<7>----------|-----------------------||
|--------------10-------|---------------10---10---||-10h12-13-12-------10--|-(10)-12-13p12-12---12---||--0-----0--0---0----0--|--(0)--0--0--------------||--0--------------0-(0)-|------------------0----0-||-----------------------|-------------------------||-----------------------|-------------------------|
|----------------------|-------------------------||-10-12-13-12--8----6--|-(6)-8-6h8p6s5-3----(3)/-||--0--0-10--0--0----0--|-(0)-0-0-------0---------||----------------0-(0)-|---------------0---------||----------------------|---------------------0---||----------------------|-------------------------|
|---------------------|---------------10---10-----||-10-12-13-12--8---10-|-(10)-12-13p12-12---12-----||--0--0-10--0--0----0-|--(0)--0--0----------------||----------------0----|------------------0----(0)-||---------------------|---------------------------||---------------------|---------------------------|
|--------------------|-----------------------------|-------|||-10-12-13-12--8---6-|-(6)-8-6h8p6s5-3-5--3h=5p3s1-|-^0----|||--0--0-10--0--0---0-|-(0)-0-0-------0-0-(0)-------|-^0----|||----------------0---|-----------------------------|-^0----|||--------------------|-----------------------------|-------|||--------------------|-----------------------------|-------||
|-----8-------8---|-------8-------8---|-----8-------8---|-------8-------8---||---8---8---8---8-|-----8---8---8---8-|---8---8---8---8-|-----8---8---8---8-||-5-------5-------|--5--------5-------|-5-------5-------|--5--------5-------||-----------------|-------------------|-----------------|-------------------||-----------------|-------------------|-----------------|-------------------||-----------5---0-|-(0)---------------|-----------5---0-|-(0)---------------|
||---------------|----------------|---------3----|-5---3-----------|||o-5------3-3-3-|---1-1---1---3--|----5----3----|-6---6--5-6--8---|||--5------3-3-3-|---2-2---2---3--|----5----4--5-|---5----5-7--9---|||--5------3-3-3-|-------3---3----|----5---------|--------5---10---|||o--------------|----------------|-0------------|-----------------|||---------------|----------------|--------------|-----------------|
|-----------------|----------------|---------3-3---|-5---3--------3-||--(8)------3-3-3-|---1-1---1---3--|----5----3-3---|-6---6----3-5-6-||--(9)------3-3-3-|---2-2---2---3--|----5----4-4-5-|---5----5---5-5-||-(10)------3-3-3-|-------3---3----|----5----------|--------5-------||-----------------|----------------|-0-------------|----------------||-----------------|----------------|---------------|----------------|
|-(3)---------------|----------------|-------5---------|---3-----^3----||-(6)----8--6-(6)-5-|-6p5-------5----|-6-------6-5---3-|-----3---^3----||-(5)----5--5-(5)-5-|-----5---5------|---5---------5---|-5-----5-^4----||-------------------|-------5--------|-----7-----5---5-|---------^5----||-------------------|----------------|-5---------------|---------------||-------------------|----------------|-----------------|---------------|
|-----------------|---------1----||---3-------3-----|---3---------------3-||-1----1----------|---1-----1----||-5---5---6---6---|-----3-----------3---||-1-------1-(1)---|-----3---3----||-------5-------5-|-4------4--4--5------||-1-------------1-|-------3------||-----------------|---------------------||-----------------|-1------------||-----------------|---------------------||-3---------------|--------------||-----------------|---------------------|
|
| Gtr III|-----------------|--------------||-----------------|----------------15---||-----------------|--------------||-----------------|-------12-13-15------||-----------------|-4------------||-----------------|----------------12---||-----------------|-4------------||-----------------|--------9-10-12------||-----------------|-2------------||-----------------|---------------------||-----------------|--------------||-----------------|---------------------|
|------3--------3-----|-------------------------||---5----5---6----6-5-|-(5)-3--------3----------||----------5--------5-|-(5)-4-----------5--4----||-------------------5-|-(5)-5-----------------5-||---------------------|-------------------------||---------------------|-------------------------|
| |
|-(15)----------------|-------------------------||---------------------|------------/15-13-12----||-(12)----------------|----------------------12-||---------------------|------------/12-10--9----||---------------------|----------------------10-||---------------------|-------------------------|
|-----------------3-|----------------5----||-------3------3----|------3-5-----5---5--||-5---5------5------|-3-5-------5---------||---5-----5---------|---------------------||-------------------|---------------------||-------------------|---------------------|
| |
|-------------------|---------------------||-------------------|---------------------||-------------------|---------------------||-------------------|-8------7-(7)---5----||-------------------|-5-7--8-7-(7)---5----||-------------------|---------------------|
|---------------3-|-----8-------8---|-------8-------8---||-----1-------3---|---8---8---8---8-|-----8---8---8---8-||---0---0---4-----|-5-------5-------|--5--------5-------||-3-------5-------|-----------------|-------------------||-----------------|-----------------|-------------------||-----------------|-----------5---0-|-(0)---------------|
| |
|-----------------|-----------------|-------------------||-----------------|-----------------|-------------------||-----------------|-----------------|-------------------||-3-------5-------|-----------------|-------------------||-3-------5-------|-----------------|-------------------||-----------------|-----------------|-------------------|
|-----8-------8---|-------8-------8----|||---8---8---8---8-|-----8---8---8---8-o|||-5-------5-------|--5--------5--------|||-----------------|--------------------|||-----------------|-------------------o|||-----------5---0-|-(0)----------------||
| |
|-----------------|--------------------|||-----------------|-------------------o|||-----------------|--------------------|||-----------------|--------------------|||-----------------|-------------------o|||-----------------|--------------------||
Guitar Solo
Gtr III|------------------------------------------||-11----13b15r(13)-11h13p11s10----10-------||------------------------------12----12-10-||------------------------------------------||------------------------------------------||------------------------------------------|
| | Gtr I |
|------------------------------------------||--3---------------------------------------||--3---------------------------------------||--3---------------------------------------||--1---------------------------------------||------------------------------------------|
|---------------------------------------||---------------------------------------||-9-10-12----9h10p9---------------------||-------------------12-10-12-10-8-------||---------------------------------12-10-||---------------------------------------|
| |
|---------------------------------------||-1-------------------------------------||-0-------------------------------------||-2-------------------------------------||-3-------------------------------------||---------------------------------------|
|-------------------------------|--------------------------------------||-------------------------------|--------------------------------------||---------------9-10----9-10-12-|-12b14r(12)p10p9----9-----------------||-8--10s12-(12)------12---------|-----------------12---10-(10)---(10)/-||-------------------------------|--------------------------------------||-------------------------------|--------------------------------------|
| |
|-------------------------------|--------------------------------------||-3-----------------------------|--1-----------------------------------||-3-----------------------------|--0-----------------------------------||-3-----------------------------|--2-----------------------------------||-1-----------------------------|--3-----------------------------------||-------------------------------|--------------------------------------|
|-18b20--(18)--22b23r(22)-20-----------------||----------------------------21--------------||-------------------------------20-19-20-22--||--------------------------------------------||--------------------------------------------||--------------------------------------------|
| |
|--------------------------------------------||--1-----------------------------------------||--1-----------------------------------------||--1-----------------------------------------||--------------------------------------------||--------------------------------------------|
|---------------------------||---------------------------||-----22b24-22-(22)---(22)\-||-20------------------------||---------------------------||---------------------------|
| |
|---------------------------||--3------------------------||--3------------------------||--3------------------------||--1------------------------||---------------------------|
|-----8--------------------------------------------------------------||-11----11p8-------8-11p8h11p8---------------------------------------||------------10b12-------------10-8b8.5----8-10b12r(10)p8-10p8h10p8s=||---------------------------------------10---------------------------||--------------------------------------------------------------------||--------------------------------------------------------------------|
| |
|--------------------------------------------------------------------||--1------------------3-----------------------4----------------------||--1------------------1-----------------------1----------------------||--1------------------1-----------------------1----------------------||--------------------------------------------------------------------||--------------------------------------------------------------------|
|-------------------------------------------|---------------------|--------|||-------------------------------------------|---------------------|--------|||-7-----7-----------------------------------|---------------------|--------|||----10---8-10----8-------------------------|---------------------|--------|||--------------10----8-[10]-6-[8]p6-------6-|-8h10----8h10p8s7----|-(7)----|||-----------------------------------8-5-8---|---------------------|--------||
| |
|-------------------------------------------|---------------------|--------|||-3---------------4-----------------6-------|----5----------------|-(5)----|||-3---------------3-----------------3-------|----5----------------|-(5)----|||-3---------------3-----------------3-------|----5----------------|-(5)----|||-------------------------------------------|----3----------------|-(3)----|||-------------------------------------------|---------------------|--------||
Chorus|---5-------5-----|---5---------------5-||-7---7---8---8---|-----5----------5----||-------7-------7-|-6-----6--6--7-------||-----------------|---------------------||-----------------|---------------------||-----------------|---------------------|
| | Gtr III |
|-----------------|------------------17-||-----------------|---------14-15-17----||-----------------|------------------14-||-----------------|---------11-12-14----||-----------------|---------------------||-----------------|---------------------|
|------5--------5-----|--------------------------||---7----7---8----8-7-|-(7)-5--------5-----------||----------7--------7-|-(7)-6-----------7--6-----||-------------------7-|-(7)-7-----------------7--||---------------------|--------------------------||---------------------|--------------------------|
| |
|-(17)----------------|--------------------------||---------------------|------------/17-15-14-----||-(14)----------------|----------------------14--||---------------------|------------/14-12-11-----||---------------------|----------------------12--||---------------------|--------------------------|
|----------------5-|-------------------7---||-------5------5---|---------5-7-----7---7-||-7---7------7-----|--5--7--------7--------||---7-----7--------|-----------------------||------------------|-----------------------||------------------|-----------------------|
| |
|------------------|-----------------------||------------------|-----------------------||------------------|-----------------------||------------------|-10--------9-(9)---7---||------------------|--7--9--10-9-(9)---7---||------------------|-----------------------|
|-------5-------5-|-6--------------8-||-----3-------5---|---6----------8---||---2-------6-----|-----7------9-----||-5-------7-------|-------8-10-------||-----------------|------------------||-----------------|------------------|
| |
|-----------------|------------------||-----------------|------------------||-----------------|------------------||-5-------7-------|-8-------10-------||-5-------7-------|-8-------10-------||-----------------|------------------|
|-------10---------10----|------10---------10----||----10----10---10----10-|---10----10---10----10-||--7----------7----------|-7----------7----------||------------------------|-----------------------||------------------------|-----------------------||------------------------|-----------------------|
| |
|------------------------|-----------------------||------------------------|-----------------------||------------------------|-----------------------||-12---------------------|-----------------------||-12---------------------|-----------------------||------------------------|-----------------------|
| | Gtr II |
|------------------------|-----------------------||------------------------|-----------------------||--7---------------------|-----------------------||--7---------------------|-----------------------||--5---------------------|-----------------------||------------------------|-----------------------|
|------10---------10----||-------10---------10------|||---10----10---10----10-||o---10----10---10----10--o|||-7----------7----------||--7----------7------------|||-----------------------||--------------------------|||-----------------------||o------------------------o|||-----------------------||--------------------------||
| |
|-----------------------||--------------------------|||-----------------------||o------------------------o|||-----------------------||--------------------------|||-----------------------||--------------------------|||-----------------------||o------------------------o|||-----------------------||--------------------------||
| |
|-----------------------||--------------------------|||-----------------------||o------------------------o|||-----------------------||--------------------------|||-----------------------||--------------------------|||-----------------------||o------------------------o|||-----------------------||--------------------------||
|------10---------10----|------10---------10----||---10----10---10----10-|---10----10---10----10-||-7----------7----------|-7----------7----------||-----------------------|-----------------------||-----------------------|-----------------------||-----------------------|-----------------------|
|------10---------------|------*||---10----10-5----------|-7----*||-7----------5-5--------|-7----*||----------------5------|-7----*||------------------7s9--|------*||-----------------------|------*|
Please rate this tab:
x1.0