Mudvayne - Pharmaecopia tab

------------------------------------------------------------------------------
MuDvAyNe
Song : Pharmaecopia
Album : L.D 50
------------------------------------------------------------------------------
>> Tunning : (B,F#,B,E,G#,C#)
------------------------------------------------------------------------------
>> Informations : enjoy...               (by xx_xx_my_angel_xx_xx@hotmail.com)
------------------------------------------------------------------------------

[a] accentuate - [b] bend - [m] p-mute - [ops] open strings - [h] harmony

------------------------------------------------------------------------------
Intro - 00:00

||---0-0-----------------------------0-0-----------------------------||-----5(b)----------------------------5(b)--------------------------||-------------------------------------------------------------------||-------------------------------------------------------------------||-------------------------------------------------------------------||-----------0-0--0--0-6--0-0-0--0-----------0-0--0--0-6--0-0--------
---0-0-----------------------------0-0----------------------------- -----5(b)----------------------------5(b)-------------------------- ------------------------------------------------------------------- ------------------------------------------------------------------- ------------------------------------------------------------------- -----------0-0--0--0-6--0-0-0--0-----------0-0--0--0-6--0-0--------
---0-0-----------------------------0-0----------------------------- -----5(b)----------------------------5(b)-------------------------- ------------------------------------------------------------------- ------------------------------------------------------------------- ------------------------------------------------------------------- -----------0-0--0--0-6--0-0-0--0-----------0-0--0--0-6--0-0--------
---0-0-----------------------------0-0-----------------------------|| -----5(b)----------------------------5(b)--------------------------|| -------------------------------------------------------------------|| -------------------------------------------------------------------|| -------------------------------------------------------------------|| -----------0-0--0--0-6--0-0-0--0-----------0-0--0--0-6--0-0--------||
---------------------------------------------------------------------- Fill 1 - 00:27
||--------------------------------------------------------------------------||--------------------------------------------------------------------------||--------------------------------------------------------------------------||--------------------0----------------------------------0------------------||---3-2--6-5-0--2-0----6-5-0-0--2-0-7-8-0-0-6-5-0--2-0----6-5-0-0--2-0-7-8-||---3-2--6-5-0--2-0----6-5-0-0--2-0-7-8-0-0-6-5-0--2-0----6-5-0-0--2-0-7-8-
-------------------------------------------------------------------------- -------------------------------------------------------------------------- -------------------------------------------------------------------------- --------------------0----------------------------------0------------------ ---0-0--6-5-0--2-0----6-5-0-0--2-0-7-8-0-0-6-5-0--2-0----6-5-0-0--2-0-8-5- ---0-0--6-5-0--2-0----6-5-0-0--2-0-7-8-0-0-6-5-0--2-0----6-5-0-0--2-0-8-5-
-------0--0--0--0--0--0--0--0--0--0---------------------------------------|| -------5-----5-----5-----5-----5------------------------------------------|| --------------------------------------------------------------------------|| ---0-[ops]---------------------------------------------8----0-------------|| ---0-[ops]---------------------------------------------8----4(b)----------|| ---0-[ops]-----------------------------0-0-0-0-2-2-2-2-8------------------||
---------------------------------------------------------------------- Fill 2 - 00:49
||-------------------------------------------------||-------------------------------------------------||-------------------------------------------------||----------------------(5h6)-----------------0----||------------------(5h6)---(5h6)---2-3--2-3--4(b)-||---0-0-0-0--0-0-0-----------------2-3--2-3-------
------------------------------------------------- ------------------------------------------------- ------------------------------------------------- ------------------------------------------------- ------------------------------------------------- ---0-0-0-0--0-0-0-0--0-0-0-0---11(b)-------------
------------------------------------------------- ------------------------------------------------- ------------------------------------------------- ---2-3-2----------------0------------------------ ---------3-0-2-3--2-3---4(b)--------------------- -----------0-2-3--2-3----------------------------
------------------------------------------------- ------------------------------------------------- ------------------------------------------------- ----------------------(5h6)-----------------0---- ------------------(5h6)---(5h6)---2-3--2-3--4(b)- ---0-0-0-0--0-0-0-----------------2-3--2-3-------
-------------------------------------------------|| -------------------------------------------------|| ---------------9\8-8-8-8\7-7---------------------|| -------------------------------------------------|| ---------------8\7-7-7-7\5-5---------------------|| ---0-0-0-0---------------------------------------||
---------------------------------------------------------------------- Fill 3 - 01:09
||----------------------------------------------------------------------||----------------------------------------------------------------------||----------------------------------------------------------------------||----------------------------------------------------------------------||----------------------------------------------------------------------||---3-2-0-0-3-2-0-0-3-2-0-3-2-0-0-3-2-0-0-3-2-0-3-2-0-0-3-2-0-0-3-2-0--
----------------------------------------------------------------------|| ----------------------------------------------------------------------|| ----------------------------------------------------------------------|| ---------------------------------------------8----0-------------------|| ---------------------------------------------8----4(b)----------------|| ---3-2-0-0-3-2-0-0-3-2-0-----0-0-0-0-2-2-2-2-8------------------------||
---------------------------------------------------------------------- Fill 4 - 01:21
||-------------------------------------------------||-------------------------------------------------||-------------------------------------------------||----------------------(5h6)-----------------0----||------------------(5h6)---(5h6)---2-3--2-3--4(b)-||---0-0-0-0--0-0-0-----------------2-3--2-3-------
------------------------------------------------- ------------------------------------------------- ------------------------------------------------- ------------------------------------------------- ------------------------------------------------- ---0-0-0-0--0-0-0-0--0-0-0-0---11(b)-------------
------------------------------------------------- ------------------------------------------------- ------------------------------------------------- ------------------------------------------------- ---7(b)--0-0-3-2-0--6-5-0-0--3-2----------------- ---------0-0-3-2-0--6-5-0-0--3-2-----------------
------------------------------------------------- ------------------------------------------------- ------------------------------------------------- ----------------------(5h6)-----------------0---- ------------------(5h6)---(5h6)---2-3--2-3--4(b)- ---0-0-0-0--0-0-0-----------------2-3--2-3-------
-------------------------------------------------|| -------------------------------------------------|| ---------------9-9-9-9-9/12-12/14----------------|| -------------------------------------------------|| ---------------8-8-8-8-8/10-10/12----------------|| ---0-0-0-0---------------------------------------||
---------------------------------------------------------------------- Fill 5 - 01:41
||--------------------------------------------------------------------------||--------------------------------------------------------------------------||--------------------------------------------------------------------------||--------------------0----------------------------------0------------------||---0-0--6-5-0--2-0----6-5-0-0--2-0-8-5-0-0-6-5-0--2-0----6-5-0-0--2-0-8-5-||---0-0--6-5-0--2-0----6-5-0-0--2-0-8-5-0-0-6-5-0--2-0----6-5-0-0--2-0-8-5-
-------------------------------------------------------------------------- -------------------------------------------------------------------------- -------------------------------------------------------------------------- --------------------0----------------------------------0------------------ ---0-0--6-5-0--2-0----6-5-0-0--2-0-8-5-0-0-6-5-0--2-0----6-5-0-0--2-0-8-5- ---0-0--6-5-0--2-0----6-5-0-0--2-0-8-5-0-0-6-5-0--2-0----6-5-0-0--2-0-8-5-
-------------------------------------------------------------------------- -------------------------------------------------------------------------- -------------------------------------------------------------------------- --------------------0----------------------------------0------------------ ---0-0--6-5-0--2-0----6-5-0-0--2-0-8-5-0-0-6-5-0--2-0----6-5-0-0--2-0-8-5- ---0-0--6-5-0--2-0----6-5-0-0--2-0-8-5-0-0-6-5-0--2-0----6-5-0-0--2-0-8-5-
--------------------------------------------------------------------------|| --------------------------------------------------------------------------|| --------------------------------------------------------------------------|| --------------------0----------------------------------0------------------|| ---0-0--6-5-0--2-0----6-5-0-0--2-0-8-5-0-0-6-5-0--2-0----6-5-0-0--2-0-8-5-|| ---0-0--6-5-0--2-0----6-5-0-0--2-0-8-5-0-0-6-5-0--2-0----6-5-0-0--2-0-8-5-||
---------------------------------------------------------------------- Fill 6 - 02:07
||----------------------------------------------------------------------||----------------------------------------------------------------------||----------------------------------------------------------------------||----------------------------------------------------------------------||----------------------------------------------------------------------||---3-2-0-0-3-2-0-0-3-2-0-3-2-0-0-3-2-0-0-3-2-0-3-2-0-0-3-2-0-0-3-2-0--
--------------------------------------------------------------------------|| --------------------------------------------------------------------------|| --------------------------------------------------------------------------|| --------------------------------------------------------------------------|| --------------------------------------------------------------------------|| ---3-2-0-0-3-2-0-0-3-2-0--3-2-0-0-3-2-0-0-3-2-0-0-3-2-0-0-3-2-0-0-3-2-0-0-||
---------------------------------------------------------------------- Fill 7 - 02:22
||------------------------------------------------------------||||------------------------------------------------------------||||------------------------------------------------------------||||---3-2-3--0--3-2-3-2-3--0---3-2-3--0--3-2-3-2-0-------------||||---3-2-3--0--3-2-3-2-3--0---3-2-3--0--3-2-3-2-0---0-2-3--0--||||---3-2-3--0--3-2-3-2-3--0---3-2-3--0--3-2-3-2-0---0-2-3-----||
----------------------------------------------------------------------Fill 8 - 02:27||------------------------------------------------------------------||------------------------------------------------------------------||--------------(7)----------10-10-10-10-1010--7----7-8-7--7-7-7-7--||---7-7-8-7-8-7-0-[ops]------8--8--8--8--8-8--0--------------------||---8-8-8-8-8-8-0-[ops]------8--8--8--8--8-8--0--------------------||---8-8-8-8-8-8-0-[ops]------8--8--8--8--8-8--0--------------------
-------------------------------------------------------------------------------------- -------------------------------------------------------------------------------------- ---10-10-10-10-1010--7----7-8-7--7-7-7-7-----10-10-10-10-1010--7----7-8-7--7-7-7-7---- ----8--8--8--8--8-8--0------------------------8--8--8--8--8-8--0---------------------- ----8--8--8--8--8-8--0------------------------8--8--8--8--8-8--0---------------------- ----8--8--8--8--8-8--0------------------------8--8--8--8--8-8--0----------------------
----------------------------------------------|| ----------------------------------------------|| ---10-10-10-10-1010--7-[ops]------------------|| ----8--8--8--8--8-8--0-[ops]------------------|| ----8--8--8--8--8-8--0-[ops]------------------|| ----8--8--8--8--8-8--0-[ops]------------------||
---------------------------------------------------------------------- Fill 9 - 02:52
||-----------------------------------------------------------------||-----------------------------------------------------------------||-------------------------10-10-10-10-1010--7---------------------||---8--3---3--2------------8--8--8--8--8-8--0---------------------||---8--3---3--2--0-2-3-0---8--8--8--8--8-8--0---------------------||---8--3---3--2--0-2-3-----8--8--8--8--8-8--0---0-1-0-0-0-0-0-0---
----------------------------------------------------------------------------------- ----------------------------------------------------------------------------------- ---10-10-10-10-1010--7---------------------10-10-10-10-1010--7--------------------- ----8--8--8--8--8-8--0----------------------8--8--8--8--8-8--0--------------------- ----8--8--8--8--8-8--0----------------------8--8--8--8--8-8--0--------------------- ----8--8--8--8--8-8--0---0-1-0-0-0-0-0-0----8--8--8--8--8-8--0---0-1-0-0-0-0-0-0---
---------------------------------------------|| ---------------------------------------------|| ---10-10-10-10-1010--------------------------|| ----8--8--8--8--8-8--------------------------|| ----8--8--8--8--8-8--------------------------|| ----8--8--8--8--8-8-----0-0-0--0-6--0-0-0-0--||
---------------------------------------------------------------------- Fill 10 - 03:14
||---0-0-----------------------------0-0-----------------------------||-----5(b)----------------------------5(b)--------------------------||-------------------------------------------------------------------||-------------------------------------------------------------------||-------------------------------------------------------------------||-----------0-0--0--0-6--0-0----------------0-0--0--0-6--0-0--0-0---
---0-0-------------------------------------------------------------|| -----5(b)----------------------------------------------------------|| -------------------------------------------------------------------|| -------------------------------------------------------------------|| -------------------------------------------------------------------|| -----------0-0--0--0-6--0-0-[ops]----------------------------------||
---------------------------------------------------------------------- Fill 11 - 03:37
||------------------------------------------------------||------------------------------------------------------||---17\16--15\14-----15\14----17\16--15\14-----15\14---||------------------------------------------------------||---15\14--13\12-----13\12----15\14--13\12-----13\12---||------------------------------------------------------
------------------------------------------------------ ------------------------------------------------------ ---17\16--15\14-----15\14----17\16--15\14-----15\14--- ------------------------------------------------------ ---15\14--13\12-----13\12----15\14--13\12-----13\12--- ------------------------------------------------------
-----------------------------------------------------------|| -----------------------------------------------------------|| ---16/17--17/19--19/20--17/19--16/17--17/19--19/20--17/19--|| -----------------------------------------------------------|| ---14/15--15/17--17/18--15/17--14/15--15/17--17/18--15/17--|| -----------------------------------------------------------||
---------------------------------------------------------------------- Fill 12 - 04:00
||-------------------------------------------------------||-------------------------------------------------------||-------------------------------------------------------||-------------------------------------------------------||-------------------------------------------------------||---0-0-0-0-0-0/1/0-0-0-0-0-0---0-0-0-0/1/0-0-0/1/0-0---
------------------------------------------------------- ------------------------------------------------------- ------------------------------------------------------- ------------------------------------------------------- ------------------------------------------------------- ---0-0-0-0-0-0/1/0-0-0/1/0-0--------------------------- ------------------------------------------------------- ------------------------------------------------------- ------------------------------------------------------- ------------------------------------------------------- ------------------------------------------------------- /1/0-0-1-0-0-0-0-1-0-0-0-0-0-0-1-0-0-0-0-1-0-0-0-0-0-0-
-------------------------------------------------|| -------------------------------------------------|| -------------------------------------------------|| -------------------------------------------------|| -------------------------------------------------|| -1-0-0-0-0-1-0-0-0-0-0-0-1-0-0-0-0-1-0-0-0-0-0-0-||
---------------------------------------------------------------------- Fill 13 - 04:19
||------------------------------------------------------------||||------------------------------------------------------------||||------------------------------------------------------------||||---3-2-3--0--3-2-3-2-3--0---3-2-3--0--3-2-3-2-0-------------||||---3-2-3--0--3-2-3-2-3--0---3-2-3--0--3-2-3-2-0---0-2-3--0--||||---3-2-3--0--3-2-3-2-3--0---3-2-3--0--3-2-3-2-0---0-2-3-----||
---------------------------------------------------------------------- Fill 14 - 04:25 > 05:34
||-----------------------------------------------------------||||-----------------------------------------------------------||||---10-10-10-10-1010--7-[ops]---10-10-10-10-1010--7-[ops]---||||----8--8--8--8--8-8--0-[ops]----8--8--8--8--8-8--0-[ops]---||||----8--8--8--8--8-8--0-[ops]----8--8--8--8--8-8--0-[ops]---||||----8--8--8--8--8-8--0-[ops]----8--8--8--8--8-8--0-[ops]---||
End.
Tap to rate this tab
 
# A B C D E F G H I J K L M N O P Q R S T U V W X Y Z