Mudvayne – Detirmined tab

OK THIS IS RIGHT FROM THE BOOK SO ALL THE NOTES ARE RIGHT..

    "Determined"            KEY:/ \=SLIDE UP, DOWN
                                 PM=PALM MUTE
                                 X=SLIGHTLY COVER STRING WITH FINGER SO IT DOESN'T RING OUT
                            (low)c-g-c-f-a-d(high)
                            tempo:123
                            *straight out'a tha tab book*

|----2-2-2-2-3-3-3-3-5-5-5-5-8-8-8-8|-2-2-2-2-3-3-3-3-5-5-5-5-8-8-8-8-| (low)|-----------------------------------|---------------------------------||-----------------------------------|---------------------------------||-----------------------------------|---------------------------------||-----------------------------------|---------------------------------||-----------------------------------|---------------------------------| (high)
|----2-2-2-2-3-3-3-3-5-5-5-5-8-8-8-8|-2-2-2-2-3-3-3-3-5-5-5-5-8-8-8-8-||-----------------------------------|---------------------------------||-----------------------------------|---------------------------------||-----------------------------------|---------------------------------||-----------------------------------|---------------------------------||-----------------------------------|---------------------------------|
|----2-2-2-2-3-3-3-3-5-5-5-5-8-8-8-8|-2-2-2-2-3-3-3-3-5-5-5-5-8-8-8-8-||----2-2-2-2-3-3-3-3-5-5-5-5-8-8-8-8|-2-2-2-2-3-3-3-3-5-5-5-5-8-8-8-8-||----2-2-2-2-3-3-3-3-5-5-5-5-8-8-8-8|-2-2-2-2-3-3-3-3-5-5-5-5-8-8-8-8-||-----------------------------------|---------------------------------||-----------------------------------|---------------------------------||-----------------------------------|---------------------------------|
|----2-2-2-2-3-3-3-3-5-5-5-5-8-8-8-8|-2-2-2-2-3-3-3-3-5-5-5-5-8-8-8-8-||----2-2-2-2-3-3-3-3-5-5-5-5-8-8-8-8|-2-2-2-2-3-3-3-3-5-5-5-5-8-8-8-8-||----2-2-2-2-3-3-3-3-5-5-5-5-8-8-8-8|-2-2-2-2-3-3-3-3-5-5-5-5-8-8-8-8-||-----------------------------------|---------------------------------||-----------------------------------|---------------------------------||-----------------------------------|---------------------------------|
|----0---3---0----3---0---3---0---3-|--6---0-----0--/6---0--/6---0---||----0---3---0----3---0---3---0---3-|--6---0-----0--/6---0--/6---0---||----0---3---0----3---0---3---0---3-|--6---0-----0--/6---0--/6---0---||-----------------------------------|--------------------------------||-----------------------------------|--------------------------------||-----------------------------------|--------------------------------|
|----0---3---0----3---0---3---0---3-|--6---0-----0--/6---0--/6---0---||----0---3---0----3---0---3---0---3-|--6---0-----0--/6---0--/6---0---||----0---3---0----3---0---3---0---3-|--6---0-----0--/6---0--/6---0---||-----------------------------------|--------------------------------||-----------------------------------|--------------------------------||-----------------------------------|--------------------------------|
|--0---3---0---3---0---3---0---3----||--0---3---0---3---0---3---0---3----||--0---3---0---3---0---3---0---3----||-----------------------------------||-----------------------------------||-----------------------------------|
|-----6---0-----0--/6---0--/6---0---|--0---3---0---3---0---3---0---3--||-----6---0-----0--/6---0--/6---0---|--0---3---0---3---0---3---0---3--||-----6---0-----0--/6---0--/6---0---|--0---3---0---3---0---3---0---3--||-----------------------------------|---------------------------------||-----------------------------------|---------------------------------||-----------------------------------|---------------------------------|
|---6---0-----0---/6---0---6--------||---6---0-----0---/6---0---6--------||---6---0-----0---/6---0---6--------||-----------------------------------||-----------------------------------||-----------------------------------|
|--2---2---2---2----2--0--2----2---3---2---0--||--2---2---2---2----2--0--2----2---3---2---0--||---------------------------------------------||---------------------------------------------||---------------------------------------------||---------------------------------------------|
|---------------------------------------------||-----6------6--------6------6----------------||-----4------4--------4------4----------------||-----3------3--------3------3----------------||-----2------2--------2------2----------------||---------------------------------------------|
|----2---2---2---2------0----2/5\2---2---3---2---0--||----2---2---2---2------0----2/5\2---2---3---2---0--||---------------------------------------------------||---------------------------------------------------||---------------------------------------------------||---------------------------------------------------|
|----------------------------------------------||-----6------6--------6------6-----------------||-----4------4--------4------4-----------------||-----3------3--------3------3-----------------||-----2------2--------2------2-----------------||----------------------------------------------|
|----2---2---2---2------0----2----0-----2---3---2---0--||----2---2---2---2------0----2----0-----2---3---2---0--||------------------------------------------------------||------------------------------------------------------||------------------------------------------------------||------------------------------------------------------|
|-----------------------------------------------||-----6------6--------6------6------------------||-----4------4--------4------4------------------||-----3------3--------3------3------------------||-----2------2--------2------2------------------||-----------------------------------------------|
|----2---2---2---2------0----2/5\2----2---3---2---0--||----2---2---2---2------0----2/5\2----2---3---2---0--||----------------------------------------------------||----------------------------------------------------||----------------------------------------------------||----------------------------------------------------|
|-------------||-2--2--2--2----0--0--2--2--2--2----0--0--||-------------||-----------------------------------------||-------------||-----------------------------------------||-------------||-----------------------------------------||-------------||-----------------------------------------||-------------||-----------------------------------------|
|-2--2--2--2----0--0--8--8--7--7--5--5--7--7--||---------------------------------------------||---------------------------------------------||---------------------------------------------||---------------------------------------------||---------------------------------------------|
|----2--2--2--2----0--0--2--2--2--2----0--0--||--------------------------------------------||--------------------------------------------||--------------------------------------------||--------------------------------------------||--------------------------------------------|
|--2--2--2--2----0--0---8---8--7--7---8--8--3--3--||-------------------------------------------------||-------------------------------------------------||-------------------------------------------------||-------------------------------------------------||-------------------------------------------------|
|--2--2--2--2----0--0--2--2--2--2----0--0--||--2--2--2--2----0--0--2--2--2--2----0--0--||--2--2--2--2----0--0--2--2--2--2----0--0--||------------------------------------------||------------------------------------------||------------------------------------------|
|-2-2-2-2---0-0--8--8--7--7---5-5--7--7-|--2-2-2-2---0--0-2-2-2-2----0--0-||-2-2-2-2---0-0--8--8--7--7---5-5--7--7-|--2-2-2-2---0--0-2-2-2-2----0--0-||-2-2-2-2---0-0--8--8--7--7---5-5--7--7-|--2-2-2-2---0--0-2-2-2-2----0--0-||---------------------------------------|---------------------------------||---------------------------------------|---------------------------------||---------------------------------------|---------------------------------|
|--2-2-2-2----0--0--8--8-7-7---8-8\3--3--||--2-2-2-2----0--0--8--8-7-7---8-8\3--3--||--2-2-2-2----0--0--8--8-7-7---8-8\3--3--||----------------------------------------||----------------------------------------||----------------------------------------|
|----2--2--2--2--5--2--0--2----5--2--0--2----||----2--2--2--2------------------------------||----2--2--2--2------------------------------||--------------------------------------------||--------------------------------------------||--------------------------------------------|
|--5--2--0--2--0--2--5--2--0--2----5--2--0--2--0------||----------------------------------------------0------||----------------------------------------------0------||-----------------------------------------------------||-----------------------------------------------------||-----------------------------------------------------|
|----2-2-2-2--5-2-0-2----5-2-0-2----||----2-2-2-2------------------------||----2-2-2-2------------------------||-----------------------------------||-----------------------------------||-----------------------------------|
|--5--2--0--2----5--2--0--2--0--2--5--2--0---2----8--7---7--7--7--7--7--7-||-------------------------------------------------------------------------||-------------------------------------------------------------------------||-------------------------------------------------------------------------||-------------------------------------------------------------------------||-------------------------------------------------------------------------|
|----------------------------------------------||----------------------------------------------||-----13----------------------------------13---||-----X-----------------------------------X----||-----16----------------------------------16---| ...PLAY THIS TWICE....|----------------------------------------------| *LONG PAUSE BETWEEN EACH NOTE*
OK THATS IT..GOOD LUCK AND ROCK ON!!!...
Please rate this tab:
x1.0