Mumford And Sons – Roll Away Your Stone tab ver. 3

Hiya :)

I was looking for an acceptable tab for this song for a while but all the tabs were 
so resorted to working it out and tabbing it myself this is my first tab so bear that in 
but Im 99% sure its correct however if you can correct certain parts leave a comment on the tab:)

The song is in Open D with a capo on second.

			Open D low to high= d,  a,  f sharp, D, A, D

D |--0h2h4----4-4/5--5p4p0----0h2h4-----2-2-----------|a |--------0-----------------------0h2h5--------------|f#|---------------------------------------------------|D |---------------------------------------------------|A |--------------------------------0----0-0-----------|E |--0-----0--0-0----0--------0-----------------------|
|--0h2h4----4-4/5--5/4p0----0h2h4-----2-------------||--------0-----------------------0h2h5--5--5--------||---------------------------------------------------||---------------------------------------------------||--------------------------------0----0-------------||--0-----4----4/5--5/4p0----0-----------0--0--------|
|--0h2h4----4-4/5--5p4p0----0h2h4-----2-2-----------||--------0-----------------------0h2h5--------------||---------------------------------------------------||---------------------------------------------------||--------------------------------0----0-0-----------||--0-----0--0-0----0--------0-----------------------|
|--0h2h4----4-4/5--5/4p0----0h2h4-----2-------------||--------0-----------------------0h2h5--5--5--------||------------------------------------------0--------||------------------------------------------0--------||--------------------------------0----0----0--------||--0-----4----4/5--5/4p0----0-----------0--0--------|
I couldnt really be bothered writing out the picking pattern it should be easy enough to out not too complicated so ill just write out the chords
|---------------------------------------------------||---------------------------------------------------||--0-----------5-----------------0--------0-5-0-----| x3|--0-----------5-----------------0--------0-5-0-----||--0-----------5-----------------0--------0-5-0-----||--0-----------5-----------------0--------0-5-0-----|
Roll away your Stone ill roll away mine.
|---------------------------------------------------||---------------------------------------------------||--0-----------5--------------------0---------------||--0-----------5--------------------0---------------||--0-----------5--------------------0---------------||--0-----------5--------------------0---------------| Im afraid of what I will discover in side
|---------------------------------------------------||---------------------------------------------------||--0-----------5-----------------0--------0-5-0-----| x3|--0-----------5-----------------0--------0-5-0-----||--0-----------5-----------------0--------0-5-0-----||--0-----------5-----------------0--------0-5-0-----|
Chorus:
|---------------------------------------------------||---------------------------------------------------||--9-----------5--------7--------0------------------| x2|--9-----------5--------7--------0------------------||--9-----------5--------7--------0------------------||--9-----------5--------7--------0------------------|
Darkness is a harsh term donย’t you think Bridge:
|---------------------------------------------------||---------------------------------------------------||--0-----------0-----------------0--------0-5-0-----||--0-----------0-----------------0--------0-5-0-----||--0-----------0-----------------0--------0-5-0-----||--0-----------0-----------------0--------0-5-0-----|
|---------------------------------------------------||---------------------------------------------------||--0-----------0-----------------0--------0-5-0-----||--0-----------0-----------------0--------0-5-0-----||--0-----------0-----------------0--------0-5-0-----||--0-----------0-----------------0--------0-5-0-----|
|---------------------------------------------------||---------------------------------------------------||--0-----------5-----------------0--------0-5-0-----||--0-----------5-----------------0--------0-5-0-----||--0-----------5-----------------0--------0-5-0-----||--0-----------5-----------------0--------0-5-0-----|
|--<12><12><12><12><12><12><12><12><12>--------||--<12><12><12><12><12><12><12><12><12>--------||--<12><12><12><12><12><12><12><12><12>--------||--<12><12><12><12><12><12><12><12><12>--------||--<12><12><12><12><12><12><12><12><12>--------||--<12><12><12><12><12><12><12><12><12>--------|
|---------------------------------------------------||---------------------------------------------------||---0----------------4--5---------------------------||---0----------------4--5---------------------------||---0----------------4--5---------------------------||---0----------------4--5---------------------------|
The rest should be simple enough to work out:)
Please rate this tab:
x1.0