Glorious tab ver. 2 with lyrics by Muse - Easy chords and tabs for guitar

Muse – Glorious tab ver. 2

-----------------------------------------------------------------------------
                             Glorious- Muse
-----------------------------------------------------------------------------

i dont think i got the beginning or end right so if you here something else play it|-----------------------------------||-12h0-14h0-16h0-17b0-16h0-14h12h11-||-----------------------------------| repeat until bass comes in|-----------------------------------||-----------------------------------||-----------------------------------|
|-0-------0-------4-------4-||-0-------0-------4-------4-||-1-------1-------4-------4-| x2|-2-------2-------6-------6-||-2-------2-------6-------6-||-0-------0-------4-------4-|
_______________|---------------------------------| \|---------------------------------| \|---------------------------------| \|-9-----8-----9-----11----9---8---| \|-7-7-7-7-7-7-7-7-7-7-7-7-7-7-7-7-| \|---------------------------------| x2 \
\ | x2|-------------------------------------------------| x2 /|-------------------------------------------------| /|-------------------------------------------------| /|-9--------8--------9--------11-------9-----8-----| /|-11-11-11-11-11-11-11-11-11-11-11-11-11-11-11-11-| /|-------------------------------------------------|/
|-0-------0-------4-------4-||-0-------0-------4-------4-||-1-------1-------4-------4-| x2|-2-------2-------6-------6-||-2-------2-------6-------6-||-0-------0-------4-------4-|
|---------------------------------| |---------------------------------| |---------------------------------| |-9-----8-----9-----11----9---8---| |---------------------------------| |-9-9-9-9-9-9-9-9-9-9-9-9-9-9-9-9-| x2
|---------------------------------| |---------------------------------| |---------------------------------| |-9-----8-----9-----11----9---8---| |-7-7-7-7-7-7-7-7-7-7-7-7-7-7-7-7-| |---------------------------------| x2
|-------------------------------------------------| |-------------------------------------------------| |-------------------------------------------------| x2 |-9--------8--------9--------11-------9-----8-----| |-11-11-11-11-11-11-11-11-11-11-11-11-11-11-11-11-| |-------------------------------------------------|
|---------------------------------| |---------------------------------| |---------------------------------| |-9-----8-----9-----11----9---8---| |-9-9-9-9-9-9-9-9-9-9-9-9-9-9-9-9-| |---------------------------------|
|---------------------------------||---------------------------------||---------------------------------||-9-----8-----9-----11b-----------||-9-9-9-9-9-9-9-9-9---------------||---------------------------------|
strum 16th notes (listen to the song to get the changes down)|-----------||-----------||-8-9-10-11-| x2|-----------||-6-7-8--9--||-----------|
|-----------------------------------12-13-14-15-15-14-12-11-15-16-18-19-19--||-----------------------12-14-15-16-----------------------------------------||-8-9-10-11-12-13-14-15-------------9--10-11-12-12-11-9--8--12-13-15-16-16--||-----------------------9--11-12-13-----------------------------------------||-6-7-8--9--10-11-12-13-----------------------------------------------------||---------------------------------------------------------------------------|
|-18-16-11-14-14-12-||-------------------||-15-13-8--11-11-9--||-------------------||-------------------||-------------------|
_______________|---------------------------------| \|---------------------------------| \|---------------------------------| \|-9-----8-----9-----11----9---8---| \|-7-7-7-7-7-7-7-7-7-7-7-7-7-7-7-7-| \|---------------------------------| x2 \
\ | x2|-------------------------------------------------| x2 /|-------------------------------------------------| /|-------------------------------------------------| /|-9--------8--------9--------11-------9-----8-----| /|-11-11-11-11-11-11-11-11-11-11-11-11-11-11-11-11-| /|-------------------------------------------------|/
|---------------------------------| |---------------------------------| |---------------------------------| |-9-----8-----9-----11----9---8---| |---------------------------------| |-9-9-9-9-9-9-9-9-9-9-9-9-9-9-9-9-| x2
|---------------------------------| |---------------------------------| |---------------------------------| |-9-----8-----9-----11----9---8---| |-7-7-7-7-7-7-7-7-7-7-7-7-7-7-7-7-| |---------------------------------| x2
|-------------------------------------------------| |-------------------------------------------------| |-------------------------------------------------| x2 |-9--------8--------9--------11-------9-----8-----| |-11-11-11-11-11-11-11-11-11-11-11-11-11-11-11-11-| |-------------------------------------------------|
|---------------------------------| |---------------------------------| |---------------------------------| |-9-----8-----9-----11----9---8---| |-9-9-9-9-9-9-9-9-9-9-9-9-9-9-9-9-| |---------------------------------|
|---------------------------------||---------------------------------||---------------------------------||-9-----8-----9-----11b-----------||-9-9-9-9-9-9-9-9-9---------------||---------------------------------|
strum 16th notes|-----------------------------------12-13-14-15-15-14-12-11-15-16-18-19-19--||-----------------------12-14-15-16-----------------------------------------||-8-9-10-11-12-13-14-15-------------9--10-11-12-12-11-9--8--12-13-15-16-16--||-----------------------9--11-12-13-----------------------------------------||-6-7-8--9--10-11-12-13-----------------------------------------------------||---------------------------------------------------------------------------|
|-18-16-11-14-14-12-||-------------------||-15-13-8--11-11-9--||-------------------||-------------------||-------------------|
|---------------------------------| |---------------------------------| |---------------------------------| |-9-----8-----9-----11----9---8---| |-7-7-7-7-7-7-7-7-7-7-7-7-7-7-7-7-| |---------------------------------|
|---------------------------------||---------------------------------||---------------------------------||-9-----8-----9-----11----9---11--||-7-7-7-7-7-7-7-7-7-7-7-7-7-7-7-7-||---------------------------------|
|---------------------------------||---------------------------------||---------------------------------||-11----9-----11----13----11--9---||-9-9-9-9-9-9-9-9-9-9-9-9-9-9-9-9-||---------------------------------|
|---------------------------------||---------------------------------||---------------------------------||-11----9-----11----13----11--13--||-9-9-9-9-9-9-9-9-9-9-9-9-9-9-9-9-||---------------------------------|
|---------------------------------||---------------------------------||---------------------------------| x2|-14----13----14----13----11--13--||---------------------------------||-9-9-9-9-9-9-9-9-9-9-9-9-9-9-9-9-|
|-------------------------------------------------||-------------------------------------------------||-------------------------------------------------| x2|-14-------13-------14-------16-------14----13----||-------------------------------------------------||-12-12-12-12-12-12-12-12-12-12-12-12-12-12-12-12-|
|-------------------------------------------------||-------------------------------------------------||-------------------------------------------------| x2|-14-------13-------14-------16-------14----13----||-------------------------------------------------||-14-14-14-14-14-14-14-14-14-14-14-14-14-14-14-14-|
|----||----||----| (hold the notes)|-14-||-14-||----|
|-------------------------||-12-14-16-17-16-14h12h11-||-------------------------| x8 (slow down as you near the end of |-------------------------| the song)|-------------------------||-------------------------|
|-9/11-||-12---||------||------||------||------|
Please rate this tab:
x1.0