Muse - Glorious tab version 3

i already put this tab in but i messed it up so here it is again

im not even gonna try to get the beginning or end right so itl just start at the big bass octaves

Glorious - muse

w w w w|-0-0-4-4-||-0-0-4-4-||-1-1-4-4-||-2-2-6-6-| x2|-2-2-6-6-||-0-0-4-4-|
s s s s s s s s s s s s s s s s|---------------------------------||---------------------------------||---------------------------------||-9-----8-----9-----11----9---8---| x2|-7-7-7-7-7-7-7-7-7-7-7-7-7-7-7-7-||---------------------------------|
s s s s s s s s s s s s s s s s|-------------------------------------------------||-------------------------------------------------||-------------------------------------------------||-9--------8--------9--------11-------9-----8-----| x2|-------------------------------------------------||-11-11-11-11-11-11-11-11-11-11-11-11-11-11-11-11-|
s s s s s s s s s s s s s s s s|---------------------------------||---------------------------------||---------------------------------||-9-----8-----9-----11----9---8---| x2|-7-7-7-7-7-7-7-7-7-7-7-7-7-7-7-7-||---------------------------------|
s s s s s s s s s s s s s s s s|-------------------------------------------------||-------------------------------------------------||-------------------------------------------------||-9--------8--------9--------11-------9-----8-----| x2|-11-11-11-11-11-11-11-11-11-11-11-11-11-11-11-11-||-------------------------------------------------|
w w w w|-0-0-4-4-||-0-0-4-4-||-1-1-4-4-||-2-2-6-6-| x2|-2-2-6-6-||-0-0-4-4-|
s s s s s s s s s s s s s s s s|---------------------------------||---------------------------------||---------------------------------||-9-----8-----9-----11----9---8---| x2|-7-7-7-7-7-7-7-7-7-7-7-7-7-7-7-7-||---------------------------------|
s s s s s s s s s s s s s s s s|-------------------------------------------------||-------------------------------------------------||-------------------------------------------------||-9--------8--------9--------11-------9-----8-----| x2|-------------------------------------------------||-11-11-11-11-11-11-11-11-11-11-11-11-11-11-11-11-|
s s s s s s s s s s s s s s s s|---------------------------------||---------------------------------||---------------------------------||-9-----8-----9-----11----9---8---| x2|-7-7-7-7-7-7-7-7-7-7-7-7-7-7-7-7-||---------------------------------|
s s s s s s s s s s s s s s s s|-------------------------------------------------||-------------------------------------------------||-------------------------------------------------||-9--------8--------9--------11-------9-----8-----||-11-11-11-11-11-11-11-11-11-11-11-11-11-11-11-11-||-------------------------------------------------|
s s s s s s s s h|-----------------------------||-----------------------------||-----------------------------||-9--------8--------9-----11b-||-11-11-11-11-11-11-11-11-----||-----------------------------|
strum 16th notes h h h h|-----------||-----------||-8-9-10-11-||-----------| x2|-6-7-8--9--||-----------|
strum 16th notes h h h h h h h h h h h h h h h h|-----------------------------------12-13-14-15-||-----------------------12-14-15-16-------------||-8-9-10-11-12-13-14-15-------------9--10-11-12-||-----------------------9--11-12-13-------------||-6-7-8--9--10-11-12-13-------------------------||-----------------------------------------------|
h h h h h h h h h h h h w w|-15-14-12-11-15-16-18-19-19-18-16-11-14-12-||-------------------------------------------||-12-11-9--8--12-13-15-16-16-15-13-8--11-9--||-------------------------------------------||-------------------------------------------||-------------------------------------------|
s s s s s s s s s s s s s s s s|---------------------------------||---------------------------------||---------------------------------||-9-----8-----9-----11----9---8---| x2|-7-7-7-7-7-7-7-7-7-7-7-7-7-7-7-7-||---------------------------------|
s s s s s s s s s s s s s s s s|-------------------------------------------------||-------------------------------------------------||-------------------------------------------------||-9--------8--------9--------11-------9-----8-----| x2|-11-11-11-11-11-11-11-11-11-11-11-11-11-11-11-11-||-------------------------------------------------|
s s s s s s s s s s s s s s s s|---------------------------------||---------------------------------||---------------------------------||-9-----8-----9-----11----9---8---| x2|-7-7-7-7-7-7-7-7-7-7-7-7-7-7-7-7-||---------------------------------|
s s s s s s s s s s s s s s s s|-------------------------------------------------||-------------------------------------------------||-------------------------------------------------||-9--------8--------9--------11-------9-----8-----| x2|-11-11-11-11-11-11-11-11-11-11-11-11-11-11-11-11-||-------------------------------------------------|
s s s s s s s s s s s s s s s s|---------------------------------||---------------------------------||---------------------------------||-9-----8-----9-----11----9---8---| x2|-7-7-7-7-7-7-7-7-7-7-7-7-7-7-7-7-||---------------------------------|
s s s s s s s s s s s s s s s s|-------------------------------------------------||-------------------------------------------------||-------------------------------------------------||-9--------8--------9--------11-------9-----8-----| x2|-------------------------------------------------||-11-11-11-11-11-11-11-11-11-11-11-11-11-11-11-11-|
s s s s s s s s s s s s s s s s|---------------------------------||---------------------------------||---------------------------------||-9-----8-----9-----11----9---8---| x2|-7-7-7-7-7-7-7-7-7-7-7-7-7-7-7-7-||---------------------------------|
s s s s s s s s s s s s s s s s|-------------------------------------------------||-------------------------------------------------||-------------------------------------------------||-9--------8--------9--------11-------9-----8-----||-11-11-11-11-11-11-11-11-11-11-11-11-11-11-11-11-||-------------------------------------------------|
s s s s s s s s h|-----------------------------||-----------------------------||-----------------------------||-9--------8--------9-----11b-||-11-11-11-11-11-11-11-11-----||-----------------------------|
strum 16th notes h h h h h h h h h h h h h h h h|-----------------------------------12-13-14-15-||-----------------------12-14-15-16-------------||-8-9-10-11-12-13-14-15-------------9--10-11-12-||-----------------------9--11-12-13-------------||-6-7-8--9--10-11-12-13-------------------------||-----------------------------------------------|
h h h h h h h h h h h h w w|-15-14-12-11-15-16-18-19-19-18-16-11-14-12-||-------------------------------------------||-12-11-9--8--12-13-15-16-16-15-13-8--11-9--||-------------------------------------------||-------------------------------------------||-------------------------------------------|
s s s s s s s s s s s s s s s s|---------------------------------||---------------------------------||---------------------------------||-9-----8-----9-----11----9---8---| |-7-7-7-7-7-7-7-7-7-7-7-7-7-7-7-7-||---------------------------------|
s s s s s s s s s s s s s s s s|---------------------------------||---------------------------------||---------------------------------||-9-----8-----9-----11----9---11--| |-7-7-7-7-7-7-7-7-7-7-7-7-7-7-7-7-||---------------------------------|
s s s s s s s s s s s s s s s s|---------------------------------||---------------------------------||---------------------------------||-11----9-----11----13----11--9---||-9-9-9-9-9-9-9-9-9-9-9-9-9-9-9-9-||---------------------------------|
s s s s s s s s s s s s s s s s|---------------------------------||---------------------------------||---------------------------------||-11----9-----11----13----11--13--||-9-9-9-9-9-9-9-9-9-9-9-9-9-9-9-9-||---------------------------------|
s s s s s s s s s s s s s s s s|---------------------------------||---------------------------------||---------------------------------||-14----13----11----9-----11--13--| x2|---------------------------------||-9-9-9-9-9-9-9-9-9-9-9-9-9-9-9-9-|
s s s s s s s s s s s s s s s s|-------------------------------------------------||-------------------------------------------------||-------------------------------------------------||-14-------13-------11----------------11----13----| x2|----------------------------14-------------------||-12-12-12-12-12-12-12-12-12-12-12-12-12-12-12-12-|
s s s s s s s s s s s s s s s s|-------------------------------------------------||-------------------------------------------------||-------------------------------------------------||-14-------13-------14-------16-------14----13----| x2|-------------------------------------------------||-14-14-14-14-14-14-14-14-14-14-14-14-14-14-14-14-|
alternative ending w+w w+w|---------||---------||---------||-14--13--||-14--14--||---------|
Tap to rate this tab
 
# A B C D E F G H I J K L M N O P Q R S T U V W X Y Z