Muse - The Small Print tab

                        The Small Print


                                                  Muse
Matthew Bellamy Lead
Tabbed By JAMES DONALD 


Main riff

E||--------------------------|B||--------------3-----------|G||--------------------------|x12D||--3--4--3--4-----4--3--4--|A||--------------------------|D||--------------------------|
--------------------------|--------------------------|--------------------------|--------------------------|--7-----7-----7-----7-----|--7-----7-----9-----9-----|--------------------------|--------------------------|-----5-----5-----5-----5--|-----5-----5-----7-----7--|--------------------------|--------------------------|
------------------------------|------------------------------|--11-----11-----11-----11-----|------------------------------|------9------9------9------9--|------------------------------|
----------------------------------|----------------------------------|--12------12------14------14------|----------------------------------|------10------10------12------12--|----------------------------------|
----------------------------------|----------------------------------|--16------16------16------16------|----------------------------------|------14------14------14------14--|----------------------------------|
----------------------------------|----------------------------------|--16------16------18------16------|----------------------------------|------14------16------14------14--|----------------------------------|
----------------------------------|----------------------------------|--16------16------16------16------|----------------------------------|------14------14------14------13--|----------------------------------|
--------------------------------|--------------------------------|x2 and then--15------15------15------15/---|--------------------------------|------13------13------13--------|--------------------------------|
--------------------------|--------------------------|--15--15r---15r---15/-----|--------------------------|--------------------------|--------------------------|
Main riff x3
-------------------------|-------------------------|--3--4--3--4--3--4--3/---|-------------------------|-------------------------|
Chorus
-----------------------|--------------------------|-----------------------|--------------------------|--4--------4--4--4--4--|--------------------------|--4--------4--4--4--4--|--4--4--4--4--4--4--4--4--|--2--------2--2--2--2--|--4--4--4--4--4--4--4--4--|-----------------------|--4--4--4--4--4--4--4--4--|
--------------------------|--------------------------|--------------------------|--------------------------|--------------------------|--------------------------|--0--0--0--0--0--0--0--0--|--4--4--4--4--4--4--4--4--|--0--0--0--0--0--0--0--0--|--4--4--4--4--4--4--4--4--|--0--0--0--0--0--0--0--0--|--4--4--4--4--4--4--4--4--|
-----------------------|--------------------------|-----------------------|--------------------------|--4--------4--4--4--4--|--------------------------|--4--------4--4--4--4--|--4--4--4--4--4--4--4--4--|--2--------2--2--2--2--|--4--4--4--4--4--4--4--4--|-----------------------|--4--4--4--4--4--4--4--4--|
--------------------------|--------------------------|--------------------------|--------------------------|--------------------------|--------------------------|--0--0--0--0--0--0--0--0--|--4--4--4--4--4--4--4--4--|--0--0--0--0--0--0--0--0--|--4--4--4--4--4--4--4--4--|--0--0--0--0--0--0--0--0--|--4--4--4--4--4--4--4--4--|
--------------------------|---------------------------------|--------------------------|---------------------------------|--9--9--9--9--9--9--9--9--|--11--11--11--11--11--11--11-----|--9--9--9--9--9--9--9--9--|--11--11--11--11--11--11--11--0--|--7--7--7--7--7--7--7--7--|--9---9---9---9---9---9---9---0--|--------------------------|---------------------------------|
-----------------------|--------------------------|-----------------------|--------------------------|-----------------------|--------------------------|--4--------4--4--4--4--|--------------------------|--2--------2--2--2--2--|--0--0--0--0--0--0--0--0--|-----------------------|--0--0--0--0--0--0--0--0--|
--------------------------|--------------------------|--------------------------|--------------------------|--------------------------|--------------------------|--------------------------|-----------------------0--|--4--4--4--4--4--4--4--4--|--4--4--4--4--4--4--4--0--|--4--4--4--4--4--4--4--4--|--4--4--4--4--4--4--4--0--|
--------------------------|--------------------------|--------------------------|--------------------------|--9--9--9--9--9--9--9--9--|--------------------------|--9--9--9--9--9--9--9--9--|--7--7--7--7--7--7--7--7--|--7--7--7--7--7--7--7--7--|--7--7--7--7--7--7--7--7--|--------------------------|--7--7--7--7--7--7--7--7--|
--------------------------|--------------------------|--------------------------|--------------------------|--7--7--7--7--7--7--7--7--|--7--7--7--7--7--7--7--7--|--7--7--7--7--7--7--7--7--|--7--7--7--7--7--7--7--7--|--5--5--5--5--5--5--5--5--|--5--5--5--5--5--5--5--5--|--------------------------|--------------------------|
----------------------------------|----------------------------------|--12--12--12--12--12--12--12--12--|----------------------------------|--10--10--10--10--10--10--10--10--|----------------------------------|
----------------------------------|----------------------------------|--12--12--12--12--14--14--14--14--|----------------------------------|--10--10--10--10--12--12--12--12--|----------------------------------|
----------------------------------|----------------------------------|--15--15--15--15--15--15--15--15--|----------------------------------|--13--13--13--13--13--13--13--13--|----------------------------------|
----------------------------------|-------------------|----------------------------------|-------------------|--15--15--15--15--15--15--15--15--|-------------------|----------------------------------|-------------------|--13--13--13--13--13--13--13--13--|-------------------|----------------------------------|--9/---------------|
-------------------|--------------------|----------1/-------|----------13~-------|-------------------|--------------------|-------------------|--------------------|-------------------|--------------------|----------x--------|--------------------|
----------------------------|--------------------|----------------------------|--12----------------|------11--11--12--12--14----|--14b---------------|----------------------------|--------------------|----------------------------|--------------------|----------------------------|--------------------|
------------------|----------------------|--------------------|------------------|----------------------|--------------------|------------------|------------------15--|----------------15/-|------------------|----------------------|--------------------|------------------|--12------------------|--------------------|------------------|----------------------|--------------------|
Second riff x2
--------------------------|--------------------------|--15--15r---15r---15/-----|--------------------------|--------------------------|--------------------------|
Chorus x 1 Main riff x16 Chorus x 1 End on
----------------------------------|-------------------|----------------------------------|-------------------|--15--15--15--15--15--15--15--15--|-------------------|----------------------------------|--9/---------------|--13--13--13--13--13--13--13--13--|--9/---------------|----------------------------------|--9/---------------|
ITs almost right theres a few bits in the middle that i needa fix up
Tap to rate this tab
 
# A B C D E F G H I J K L M N O P Q R S T U V W X Y Z