Muse - Animals tab version 3

Comment and rate it, i've put a lot of effort on this one. Thanks :)


Standard tuning, drop 6th string to Eb

IntroE|-----|B|-----|G|--8~-|D|-----|A|-----|E|-----|
Verse|-------------------------------------------------||--6-7-9~-7-6h7p6---------------------------------||-----------------8-6-8~--------------------------||--------------------------8-9-11-9-8-9-8-6s8-----||---------------------------------------------9~--||-------------------------------------------------|
|hold bend||----------11-9b11--11-11-11r9----------14-14--------||--9b11--11-------------------12-11-11-------11-12~--||----------------------------------------------------||----------------------------------------------------||----------------------------------------------------||----------------------------------------------------|
Pre-chorus|---------------------------------------------------||------------------------------9~----------9-10-11~-||-----------10~------11~----------------------------||--11~--9-11-----9-11-----9-11-----9-10-11----------||---------------------------------------------------||---------------------------------------------------|
Chorus|-----------------------------10~--||--11r9----12~------11~--9s11------||--------11------------------------||----------------------------------||----------------------------------||----------------------------------|
Break|----------------------------------------------||----------7-11-9-7-9-7-6h7p6---6--------------||--------8--------------------8---8-6-8-6------||------8----------------------------------9-8--||--6-9-----------------------------------------||----------------------------------------------|
|----------7-11-9-7-9-7-6h7p6---6--------------||--------9--------------------9---9-7-9-7-6----||------8------------------------------------8--||--6-9-----------------------------------------||----------------------------------------------||----------------------------------------------|
|----------------------------------------------||----------7-11-9-7-9-7-6h7p6---6--------------||--------8--------------------8---8-6-8-6------||------8----------------------------------9-8--||--6-9-----------------------------------------||----------------------------------------------|
|----------7-11-9-7-9-7-6h7p6---6---------------||--------9--------------------9---9-7-9-7-6-7~--||------8----------------------------------------||--6-9------------------------------------------||-----------------------------------------------||-----------------------------------------------|
Verse |hold bend| |hold||---------------------------------------------------------------------------||-------9-----------------9-----------------9-------------------------------||--10-11---11--11-11-10b11--11-11-11r10--8-8--8-6b8-8-8r6-------------------||---------------------------------------------------------9-9-9-9-8h9p8-----||-----------------------------------------------------------------------9~--||---------------------------------------------------------------------------|
|hold bend||----------11-9b11--11-11-11r9------11--11-----------14---14--14--------||--9b11--11--------------------12-12--12--12-11-11-11---11--11--11-12~--||-----------------------------------------------------------------------||-----------------------------------------------------------------------||-----------------------------------------------------------------------||-----------------------------------------------------------------------|
Pre-chorus|---------------------------------------------------||------------------------------9~----------9-10-11~-||-----------10~------11~----------------------------||--11~--9-11-----9-11-----9-11-----9-10-11----------||---------------------------------------------------||---------------------------------------------------|
Chorus|-----------------------------10~--||--11r9----12~------11~--9s11------||--------11------------------------||----------------------------------||----------------------------------||----------------------------------|
Break |---PM---||------------------------||------------------------||------------------------||------------------------||------------------------||--0-0-0-12-0-0-10-0-8-0-| x4
|-------------------------------------------------------||-------------------------------------------------------||----10-11-10-11-13-11-10-11---10-11-10-11-13-11-10-11--||--13------------------------13-------------------------||-------------------------------------------------------||-------------------------------------------------------|
|---------------------------------------------------------------||----11-12-11-12-14-12-11-12-11-------11--11-12-11--11----------||--13----------------------------11-13--13--------13--13-11-10--||---------------------------------------------------------------||---------------------------------------------------------------||---------------------------------------------------------------|
|-------------------------------------------------------||-------------------------------------------------------||----10-11-10-11-13-11-10-11---10-11-10-11b13r11-10-11--||--13------------------------13-------------------------||-------------------------------------------------------||-------------------------------------------------------|
|---------------------------------------------------------------||----11-12-11-12-14-12-11-12-11-------11--11-12-11--12-11-------||--13----------------------------11-13--13--------13-----13-11--||---------------------------------------------------------------||---------------------------------------------------------------||---------------------------------------------------------------|
Pre-chorus|------------7-------------7---------------7-------------7--||--9-9-9-9-9---9-8-8-8-8-8---8s7-7-7-7-7-7---7-6-6-6-6-6----||-----------------------------------------------------------||-----------------------------------------------------------||-----------------------------------------------------------||-----------------------------------------------------------|
|--------------9-------------9-------------9-------------9------||-6--6-6-6-6-6---6-7-7-7-7-7---7-8-8-8-8-8---8-9-9-9-9-9---9s11-||---------------------------------------------------------------||---------------------------------------------------------------||---------------------------------------------------------------||---------------------------------------------------------------|
Chorus|-------------------14------------------------13--||--11-11-11-11-11-11---11-11-11-11-11-11-11-11----||-------------------------------------------------||-------------------------------------------------||-------------------------------------------------||-------------------------------------------------|
|-------------------------11------------------------11-||--11-11-11-11-11-11-11-11---11-11-11-11-11-11-11-11---||------------------------------------------------------||------------------------------------------------------||------------------------------------------------------||------------------------------------------------------|
|----------------11--11------------13--13-----------11--11--11--11--11--11---||--11-11-12-12-12--12--12--14-14-14--14--12-12-12-12--12--12--12--12--12--12-||----------------------------------------------------------------------------||----------------------------------------------------------------------------||----------------------------------------------------------------------------||----------------------------------------------------------------------------|
|----------10--10------------10--10----||--11-11-11--11--11--11-11-11--11--11--||--------------------------------------||--------------------------------------||--------------------------------------||--------------------------------------|
Outro|-------------------------||-------------------------| [On 4th repeat slide down the neck when you pick on 14]|-------------------------| |----------13-----11------| |---------------------14--| Like this |--14\--| |--12-12-12--12-12--12----| x4
|------------------------| |--11--||------------------------| |--11--||------------------------| |--11--||------------------------| |--11--||------------------------| |------||--0-0-0-12-0-0-10-0-8-0-| x4, then |------|
|------------------------||------------------------||------------------------||------------------------||------------------------||--0-0-0-12-0-0-10-0-8-0-|x4
Ending 1:|---------------------|----------------------||---------------------|----------------------||---------------------|----------------------||---------------------|----------------------||--6-----8-----9--11--|----------------------||--0-0-0---0-0---0--0-|-0-0-0-12-0-0-10-0-8\-| x4
or Ending 2:
|------------------------|-----------------------||------------------------|-----------------------||------------------------|-----------------------||------------------------|-----------------------||--6---------------------|--6--------------------||--0-0-0-14-0-0-15-0-17--|--0-0-0-12-0-0-10-0-8\-| x4
You can play anyone of these two endings.
Tap to rate this tab
 
# A B C D E F G H I J K L M N O P Q R S T U V W X Y Z