My American Heart - Postcards And Letters tab

Song: Postcards and Letters
Artist: My American Heart
Tabbed by: ARVIN HUFANA

note: for any comment, just send me an e-mail at aarrvviinn11@yahoo.com

Legend:
/ = Slide
h = Hummer on
p = Pull off
b = Bend
x = Dead String
~ = Let Ring


Order:

Intro part 1
Intro part 2
Verse 
Pre Cho
Chorus
Intro part 1
Verse
Pre Cho
Chorus
Solo part 1
Solo part2
End


Tunning: E A D G B e

Intro: Part 1

(guitar 1)-------------------------|------------------------|-------------------------|------------------------|-------------------------|------------------------|-------4--------4--------|--------4---6b-6--4-----|--6-------4h-6-----6p-4--|--4h-6---------------6--|-------------------------|------------------------|
-------------------------|-----------------------|-------------------------|-------------------------|-----------------------|-------------------------|-------------------------|-----------------------|-------------------------|-------4--------4--------|-----4----6/-----------|-------4--------4--------|--6-------4h-6-----6p-4--|--6--------------------|--6-------4--6-----6--4--|-------------------------|-----------------------|-------------------------|
------------------------|-------------------------|--------------------|------------------------|-------------------------|--------------------|------------------------|-------------------------|--------------------|--------4---6b-6--4-----|-------4--------4--------|-----6----6----6/---|--4--6---------------6--|--6-------4--6-----6--4--|--6--4----4----4/---|------------------------|-------------------------|--------------------|
Intro: Part 2
(guitar 1)-------------------------|-------------------------|-------------------------|-------7-----9b-9--7--9--|-------7-----9b-9--7-----|-------7-----9b-9--7--9/-|--8-------8--------------|----8-----8-----------8--|----8-----8--------------|-------------------------|-------------------------|-------------------------|-------------------------|-------------------------|-------------------------|-------------------------|-------------------------|-------------------------|
------11----11/-9-----9--|-------------------------|-------------------------|--11---------------11----|-------7-----9b-9--7--9--|-------7-----9b-9--7-----|-------------------------|--8-------8--------------|----8-----8-----------8--|-------------------------|-------------------------|-------------------------|-------------------------|-------------------------|-------------------------|-------------------------|-------------------------|-------------------------|
-------------------------|------11----11/-9-----9--|--11~--------------------|-------7-----9b-9--7--9/-|--11---------------11----|-------------------------|----8-----8--------------|-------------------------|-------------------------|-------------------------|-------------------------|-------------------------|-------------------------|-------------------------|-------------------------|-------------------------|-------------------------|-------------------------|
(guitar 2)--------------------------|--------------------------|--------------------------|--------------------------|--------------------------|--------------------------|--------------------------|--------------------------|--------------------------|--8--8--8--8--8--8--8--8--|--6--6--6--6--6--6--6--6--|--4--4--4--4--4--4--4--4--|--6--6--6--6--6--6--6--6--|--4--4--4--4--4--4--4--4--|--2--2--2--2--2--2--2--2--|--------------------------|--------------------------|--------------------------|
--------------------------|--------------------------|--------------------------|--------------------------|--------------------------|--------------------------|--------------------------|--------------------------|--------------------------|--5--5--5--5--5--5--5--5--|--8--8--8--8--8--8--8--8--|--6--6--6--6--6--6--6--6--|--3--3--3--3--3--3--3--3--|--6--6--6--6--6--6--6--6--|--4--4--4--4--4--4--4--4--|--------------------------|--------------------------|--------------------------|
--------------------------|--------------------------|--------------------------|--------------------------|--------------------------|--------------------------|--------------------------|--------------------------|--------------------------|--4--4--4--4--4--4--4--4--|--------------------------|--------------------------|--2--2--2--2--2--2--2--2--|--7--7--7--7--7--7--7--7--|--9~----------------------|--------------------------|--5--5--5--5--5--5--5--5--|--7~----------------------|
Verse
(guiatr 1)--9----11~----------------|-----------------------|----------------------|--x----x------------------|-----------------------|----------------------|--6----8~-----------------|-----------------------|----------------------|--------------------------|--6----6----8--6--8----|------6----6--6--6----|--------------------------|--4----4----6--4--6----|------4----4--4--4----|--------------------------|-----------------------|----------------------|
----------------------------|-------------------------|----------------------------|-------------------------|----------------------------|-------------------------|--6--6--11----11----11--11--|--11--6----6----6--6--6--|--4--4--9-----9-----9---9---|--9---4----4----4--4--4--|----------------------------|-------------------------|
-----------------------|----------------------|----------------------------|-----------------------|----------------------|----------------------------|-----------------------|----------------------|----------------------------|--6----6----8--6--8----|------6----6--6--6----|--6--6--11----11----11--11--|--4----4----6--4--6----|------4----4--4--4----|--4--4--9-----9-----9---9---|-----------------------|----------------------|----------------------------|
-------------------------|------------------------|-------------------------|------------------------|-------------------------|------------------------|--11--6----6----6--6--6--|--7----7----7--7--7--7--|--9---4----4----4--4--4--|--5----5----5--5--5--5--|-------------------------|------------------------|
(guitar 2)------------------------|-----------------------|----------------------|------------------------|-----------------------|----------------------|------------------------|-----------------------|----------------------|--6----8~---------------|--6----6----8--6--8----|------6----6--6--6----|--4----6~---------------|--4----4----6--4--6----|------4----4--4--4----|------------------------|-----------------------|----------------------|
----------------------------|-------------------------|----------------------------|-------------------------|----------------------------|-------------------------|--6--6--11----11----11--11--|--11--6----6----6--6--6--|--4--4--9-----9-----9---9---|--9---4----4----4--4--4--|----------------------------|-------------------------|
-----------------------|----------------------|----------------------------|-----------------------|----------------------|----------------------------|-----------------------|----------------------|----------------------------|--6----6----8--6--8----|------6----6--6--6----|--6--6--11----11----11--11--|--4----4----6--4--6----|------4----4--4--4----|--4--4--9-----9-----9---9---|-----------------------|----------------------|----------------------------|
-------------------------|------------------------|-------------------------|------------------------|-------------------------|------------------------|--11--6----6----6--6--6--|--7----7----7--7--7--7--|--9---4----4----4--4--4--|--5----5----5--5--5--5--|-------------------------|------------------------|
Pre Cho
(guitar 1)--------------------------|--------------------------|--------------------------|--------------------------|--------------------------|--------------------------| --4--4--4--4--4--4--4--4--|--4--4--4--4--4--4--4--4--|--6--6--6--6--6--6--6--6--|--4--4--4--4--4--4--4--4--|--------------------------|--------------------------|
--------------------------|--------------------------|--------------------------|--------------------------|--------------------------|--------------------------| --4--4--4--4--4--4--4--4--|--4----4-----4----4-------|--6--6--6--6--6--6--6--6--|--2----2-----2----2-------|--------------------------|--------------------------|
Chorus
(guitar 1) --------------------------|----------------------------------|--------------------------|----------------------------------|--8--8--8--8--8--8--8--8/-|--11--11--11--11/-10--10--10--10--|--x--x--x--x--x--x--x--x--|--x---x---x---x---x---x---x---x---|--6--6--6--6--6--6--6--6/-|--9---9---9---9/--8---8---8---8---|--------------------------|----------------------------------|
--------------------------|----------------------------------|--------------------------|----------------------------------|--8--8--8--8--8--8--8--8/-|--11--11--11--11/-10--10--10--10--|--x--x--x--x--x--x--x--x--|--x---x---x---x---x---x---x---x---|--6--6--6--6--6--6--6--6/-|--9---9---9---9/--8---8---8---8---|--------------------------|----------------------------------|
--------------------------|----------------------------------|--------------------------|----------------------------------|--6--6--6--6--6--6--6--6/-|--11--11--11--11/-10--10--10--10--|--x--x--x--x--x--x--x--x--|--x---x---x---x---x---x---x---x---|--4--4--4--4--4--4--4--4/-|--9---9---9---9/--8---8---8---8---|--------------------------|----------------------------------|
--------------------------|----------------------------------|--------------------------|----------------------------------|--6--6--6--6/-8--8--8--8/-|--10--10--10--10-11--11--11--11---|--x--x--x--x--x--x--x--x--|--x---x---x---x---x---x---x---x---|--4--4--4--4/-6--6--6--6/-|--8---8---8---8/--9---9---9---9---|--------------------------|----------------------------------|
(guitar 2) --------------------------|--------------------------|--------------------------|--------------------------|--------------------------|--------------------------|--8--8--8--8--8--8--8--8--|--8--8--8--8--8--8--8--8--|--6--6--6--6--6--6--6--6--|--6--6--6--6--6--6--6--6--|--------------------------|--------------------------|
--------------------------|--------------------------|--------------------------|--------------------------|--------------------------|--------------------------|--6--6--6--6--6--6--6--6--|--6--6--6--6--6--6--6--6--|--4--4--4--4--4--4--4--4--|--4--4--4--4--4--4--4--4--|--------------------------|--------------------------|
--------------------------|--------------------------|--------------------------|--------------------------|--------------------------|--------------------------|--4--4--4--4--4--4--4--4--|--4--4--4--4--4--4--4--4--|--2--2--2--2--2--2--2--2--|--2--2--2--2--2--2--2--2--|--------------------------|--------------------------|
--------------------------|------------------------|--------------------------|------------------------|--------------------------|------------------------|--2--2--2--2--2--2--2--2--|--2--2--2----4--4--4----|--0--0--0--0--0--0--0--0--|--0--0--0----2--2--2----|--------------------------|------------------------|
Solo Part 1
(guitar 1)E||-------|------|------------------|------|-----------------|------|B||-------|------|------------------|------|-----------------|------|G||-------|------|------------------|------|-----------------|------|D||--8----|------|--6----11----8----|------|--4----3----8----|------|A||--6----|------|--4----9-----6----|------|--2----1----6----|------|D||-------|------|------------------|------|-----------------|------|
------------------|------|--------------------------|------------------|------|--------------------------|------------------|------|--------------------------|--6----11----8----|------|--6--6--6--6--6--6--6--6--|--4----9-----6----|------|--4--4--4--4--4--4--4--4--|------------------|------|--------------------------|
(guitar 2)--------------------------|--------------------------|--------------------------|--------------------------|--------------------------|--------------------------|-x-x-x-x-x-x-x-x-x-x-x-x--|-x-x-x-x-x-x-x-x-x-x-x-x--|-x-x-x-x-x-x-x-x-x-x-x-x--|-x-x-x-x-x-x-x-x-x-x-x-x--|-x-x-x-x-x-x-x-x-x-x-x-x--|-x-x-x-x-x-x-x-x-x-x-x-x--|
Solo Part2
(guitar 1) --------------------------|--------------------------|--------------------------|--------------9b-9--7-----|--------------------4-----|--4--6--8--6-----------8--|--------4-----4--6-----6--|--------------------------|--4--6-----6--------------|--------------------------|--------------------------|--------------------------|
---------9------11----11--9--|--7----------------------|--9--11-----11---------------|-----9--7--9-------------|-----------------------------|----------------------6--|-----------------------------|----------------6--8-----|-----------------------------|-------------------------|-----------------------------|-------------------------|
--------------------------|-----------------------9--|-------7-----9b-9p7/5--9--|-------7-----9b-9p7/5-----|--8-------8---------------|----8-----8---------------|--------------------------|--------------------------|--------------------------|--------------------------|--------------------------|--------------------------|
--------------------------|-----------9----11--9------|-------7-----9b-9p7/5--9--|----9/-11--------------11--|----8-----8---------------|---------------------------|--------------------------|---------------------------|--------------------------|---------------------------|--------------------------|---------------------------|
--11--11--11--11--9--9--9--9--|------------------------------|------------------------------|--11--11--11--11--9--9--9--9--|------------------------------|------------------------------|------------------------------|------------------------------|------------------------------|------------------------------|------------------------------|------------------------------|
---------------------------|--------------------------|-------|--11--9--7-----7-----------|--------------------------|-------|------------8-----8--6-----|--6-----------------------|-------|------------------------8--|-----8--6-----6-----------|-------|---------------------------|-----------8-----8--6--4--|--6~---|---------------------------|--------------------------|-------|
(guitar 2)--------------------------|--------------------------|--------------------------|--------------------------|--------------------------|--------------------------|--8--8--8--8--8--8--8--8--|--6--6--6--6--6--6--6--6--|--6--6--6--6--6--6--6--6--|--4--4--4--4--4--4--4--4--|--------------------------|--------------------------|
--------------------------|--------------------------|--------------------------|--------------------------|--------------------------|--------------------------|--4--4--4--4--4--4--4--4--|--5--5--5--5--5--5--5--5--|--2--2--2--2--2--2--2--2--|--3--3--3--3--3--3--3--3--|--------------------------|--------------------------|
--------------------------|--------------------------|--------------------------|--------------------------|--------------------------|--------------------------|--8--8--8--8--8--8--8--8--|--6--6--6--6--6--6--6--6--|--6--6--6--6--6--6--6--6--|--4--4--4--4--4--4--4--4--|--------------------------|--------------------------|
--------------------------|--------------------------|--------------------------|--------------------------|--------------------------|--------------------------|--4--4--4--4--4--4--4--4--|--5--5--5--5--5--5--5--5--|--2--2--2--2--2--2--2--2--|--3--3--3--3--3--3--3--3--|--------------------------|--------------------------|
--------------------------|--------------------------|--------------------------|--------------------------|--------------------------|--------------------------|--4--4--4--4--4--4--4--4--|--4--4--4--4--4--4--4--4--|--2--2--2--2--2--2--2--2--|--2--2--2--2--2--2--2--2--|--------------------------|--------------------------|
--------------------------|--------------------------|-------|--------------------------|--------------------------|-------|--------------------------|--------------------------|-------|--4--4--4--4--4--4--4--4--|--4--4--4--4--4--4--4--4--|--8~---|--2--2--2--2--2--2--2--2--|--2--2--2--2--2--2--2--2--|--6~---|--------------------------|--------------------------|-------|
End
(guitar 1)-------------------------|------------------------|-------------------------|------------------------|-------------------------|------------------------|-------4--------4--------|--------4---6b-6--4-----|--6-------4h-6-----6p-4--|--4h-6---------------6--|-------------------------|------------------------|
-------------------------|--------------------|-------------------------|--------------------|-------------------------|--------------------|-------4--------4--------|-----6----6----6----|--6-------4--6-----6--4--|--6--4----4----4----|-------------------------|--------------------|
Tap to rate this tab
 
# A B C D E F G H I J K L M N O P Q R S T U V W X Y Z