My American Heart - Ruins We Hold tab

-------------------------------------------------------------------------------
			     The Ruins We Hold - My American Heart
-------------------------------------------------------------------------------
Tabbed by:heyitsthemokid

Tuning:Drop D

----------------------------------------------------------------------|---------------66---------88------------------------------------------|-----------55------77---------5557-----77-----9997-----77-----797-----|-----------------------33-----------8------8--------8------8-------8--|-3-5-8--55------------------------------------------------------------|----------------------------------------------------------------------|
----------------------------------------------------------|----------66----------88----------------------------------|-----55-------77----------5557-----77-----9997-----77-----|------------------33------------8------8--------8------8--|-55-------------------------------------------------------|----------------------------------------------------------|
--------------------------------------------------|--------------------------------------------------|----------------12-12-12-12-77777------555--------|-1212--11/12-0--x--x--x--x--55555--0-3-333--(x2)--|-1212--11/12-0--10-10-10-10-55555--0-3-333--------|-1212--11/12-0--------------55555--0-3-333--------|
---------------------------------------|---------------------------------------|-9999-12121212----------99-99----------|-7777-10101010-10101010-77-77----(x2)--|-5555-10101010-8-8-8-8--77-77----------|------10101010-8-8-8-8--77-77----------|
-----------------------------------------------------------------|-----------------------------------------------------------------|--------------------------------------------------------------7--|-0000-------------0000-------------0000--------------------------|-0000-5h7p5---3-0-0000-3h5p0---8-5-0000-5h7p5---3-0--------------|-0000-------------0000-------------0000-------------3333-55------|
.... .... .... .... ..-------------------------------------------------------------|-------------------------------------------------------------|-------------------------------------------------------------|-0000-------------0000-------------0000----------------------|-0000-5h7p5---3-0-0000-3h5p0---8-5-0000-5h7p5---3-0----------|-0000-------------0000-------------0000-------------3333-55--|
.... .... .... .... ..--------------|--------------|-----12-------|-0---x-(x30)--|-0---10-------|-0------------|
--------------------------------------------------|--------------------------------------------------|----7-7-7------7-7-7-------10-10-10-----10-10-10--|-0--x-x-x---0--x-x-x----0--x--x--x---0--x--x--x---|-0--5-5-5---0--5-5-5----0--8--8--8---0--8--8--8---|-0----------0-----------0------------0------------|
--------------|--------------|-----12-------|-0---x-(x30)--|-0---10-------|-0------------|
-----------------------------------------------------|-----------------------------------------------------|---7-7-7---7-7-7---10-10-10-10-10-10-10-10-10-10-10--|-0-x-x-x-0-x-x-x-0-x--x--x--x--x--x--x--x--x--x--x---|-0-5-5-5-0-5-5-5-0-8--8--8--8--8--8--8--8--8--8--8---|-0-------0-------0-----------------------------------|
----------------------------------------------------|----------------------------------------------------|----------------------------------------------------|-1010101010101010101010-1010101010-1010101010-------|-8-8-8-8-8-8-8-8-8-8-8--7-7-7-7-7--0-0-0-0-0--(x2)--|-8-8-8-8-8-8-8-8-8-8-8--7-7-7-7-7--0-0-0-0-0--------|
-------------------------------------------------------------|-------------------------------------------------------------|-5-0-7-0-9-0-10-0-9-0-7-0-5h7-0-5-0-7-0-9-0-10-0-9-0-7-0-5^--|-------------------------------------------------------------|-------------------------------------------------------------|-------------------------------------------------------------|
-------------------------------------------------------------|-------------------------------------------------------------|-5-0-7-0-9-0-10-0-9-0-7-0-5h7-0-5-0-7-0-9-0-10---------------|------------------------------------------------3-0-5-0-7-0--|-------------------------------------------------------------|-------------------------------------------------------------|
---------------------------------------------------------|---------------------------------------------------------|---------------------------------------------------------|-00000000000-1010101010101010101010-1010101010-33333-----|-00000000000-1010101010101010101010-9-9-9-9-9--33333-----|-00000000000-1010101010101010101010-9-9-9-9-9--33333-----|
----------------|----------------|----------------|-88-1010-10/12--|-88-1010-10/12--|-88-1010-10/12--|
[ they are 10s ]-----------------------------------------------|-----------------------------------------------|-----------------------------------------------|-000-1010101010101010101010--1010101010-33333--|-000-1010101010101010101010--9-9-9-9-9--33333--|-000-1010101010101010101010--9-9-9-9-9--33333--|
-------------------------|-------------------------|-------------------------|-88-1010-10/12-10/12-00--|-88-1010-10/12-10/12-00--|-88-1010-10/12-10/12-00--|
---------------------------|---------------------------|-12-12-12------------------|-x--x--x----55555-0-33333--|-10-10-10---55555-0-33333--|------------55555-0-33333--|
---------------------------------------|---------------------------------------|---------------12-12-12-77777----------|-1212-11/12-0--x--x--x--55555--033000--|-1212-11/12-0--10-10-10-55555--033000--|-1212-11/12-0-----------55555--033000--|
---------------------------------------------------|---------------------------------------------------|---------------------------------------------------|-1414141414-1414141414-12121212121212121212--(x2)--|-1212121212-1010101010-9-9-9-9-9-8-8-8-8-8---------|-1212121212-1010101010-9-9-9-9-9-8-8-8-8-8---------|
-----------------------------------------|-----------------------------------------|-----------------------------------------|-1010101010-101010-0-101010101-101010-0--|-8-8-8-8-8--7-7-7--0-8-8-8-8-8-7-7-7--0--|-8-8-8-8-8--7-7-7--0-8-8-8-8-8-7-7-7--0--|
------------------------------------------------------------------|----------66----------88------------------------------------------|-----55-------77----------5557-----77-----9997-----77-----797-----|------------------33------------8------8--------8------8-------8--|-55---------------------------------------------------------------|------------------------------------------------------------------|
----------------------------------------------------------|----------66----------88----------------------------------|-----55-------77----------5557-----77-----9997-----77-----|------------------33------------8------8--------8------8--|-55-------------------------------------------------------|----------------------------------------------------------|
----------------------------------------------------------------------|---------------66---------88------------------------------------------|-----------55------77---------5557-----77-----9997-----77-----797-----|-----------------------33-----------8------8--------8------8-------8--|-3-5-8--55------------------------------------------------------------|----------------------------------------------------------------------|
---------------------------------------------------------|----------66----------88---------------------------------|-----55------77----------5557-----77-----9997-----77-9>--|------------------33------------8------8--------8--------|-55------------------------------------------------------|
Solobend slighty towards end [ they are 13s ]-10-10101010-01010/1212121212121212131313131313131313131313131313--|-----------------------------------------------131313131313131313--|-------------------------------------------------------------------|-------------------------------------------------------------------|-------------------------------------------------------------------|-------------------------------------------------------------------|
-8h10-------------------------------8>--|-------6h8p6---------------6/8-6--------|-----------------5h7-5/0---------7------|----------------------------------------|----------------------------------------|----------------------------------------|
-----------------8h10--13-----------------8h10--|------6h8----6h8--------------6h8-----6h8-------|-5h7-----5h7-------------5h7------5h7-----------|------------------------------------------------|------------------------------------------------|------------------------------------------------|
bend slighty towards end [ they are 13s ]-1313131313131313131313131313131313131313131313--|-------------------------------1313131313131313--|-------------------------------------------------|-------------------------------------------------|-------------------------------------------------|-------------------------------------------------|
------------------------------------------|------------------------------------------|------------------------------------------|-1010101010-101010-0-1010101010-101010-0--|-8-8-8-8-8--7-7-7--0-8-8-8-8-8--7-7-7--0--|-8-8-8-8-8--7-7-7--0-8-8-8-8-8--7-7-7--0--|
Tap to rate this tab
 
# A B C D E F G H I J K L M N O P Q R S T U V W X Y Z