My American Heart - Hiding Inside The Horrible Weather tab

Tuning:

1.D#   4.C#
2.A#   5.G#
3.F#   6.C#

Pick: White with a Jamaican guy smoking weed on it.

My first tab but to me it sounds pretty much spot on. Haven't seen another tab for this 
anywhere so hope you enjoy :)

Intro: (Listen to song for strumming) X1|--------------| X2 |----------||--14--14--14--| |--12--12--||--11--14--13--| |--11--11--||--------------| |------X---||--------------| |------7---||--------------| |----------|
Verse: X2|---------------------------------|X2|---------------------------------||---------------------------------||--4-4-4-4-4-4-4-4-4-4-4-4-4-777--||--4-4-4-4-4-4-4-4-4-4-4-4-4-777--||--4-4-4-4-4-4-4-4-4-4-4-4-4-777--|
|-------------------------------------------------------------------||-------------------------------------------------------------------||-------------------------------------------------------------------||--0-0-0-0-0-0-0-0-0-0-0-0-0-0-0-0-2-2-2-2-2-2-2-2-2-2-2-2-2-2-2-2--||--0-0-0-0-0-0-0-0-0-0-0-0-0-0-0-0-2-2-2-2-2-2-2-2-2-2-2-2-2-2-2-2--||--0-0-0-0-0-0-0-0-0-0-0-0-0-0-0-0-2-2-2-2-2-2-2-2-2-2-2-2-2-2-2-2--|
Leading Into Chorus: X1 (Listen to song for change of strumming)|----------------------------------------------| X3|----------------------------------------------||--4-4-4-4-4-4-/-11-11-11-11-11-11-11-11-11-11-||--x-x-x-x-x-x-/-x--x--x--x--x--x--x--x--x--x--||--2-2-2-2-2-2-/-9--9--9--9--9--9--9--9--9--9--||----------------------------------------------|
|-----------------------------| X1|-----------------------------||-----------------------------||--2-2-2-2--2-2-2-2--2-2-2-2--||--2-2-2-2--2-2-2-2--2-2-2-2--||--2-2-2-2--2-2-2-2--2-2-2-2--|
Chorus: X2|-----------| X3|-----------||-----------||--4-4-4-4--||--4-4-4-4--||--4-4-4-4--|
|---------------------------------------||---------------------------------------||---------------------------------------||--7-7-7-2-2-2-0-0-0-0-0-0-0-0-0-0-0-0--||--7-7-7-2-2-2-0-0-0-0-0-0-0-0-0-0-0-0--||--7-7-7-2-2-2-0-0-0-0-0-0-0-0-0-0-0-0--|
|---------------------------||---------------------------||---------------------------||--7-7-7-7-7-7-9-9-9-9-9-9--||--7-7-7-7-7-7-9-9-9-9-9-9--||--7-7-7-7-7-7-9-9-9-9-9-9--|
Verse: X1|---------------------------------|X2|---------------------------------||---------------------------------||--4-4-4-4-4-4-4-4-4-4-4-4-4-777--||--4-4-4-4-4-4-4-4-4-4-4-4-4-777--||--4-4-4-4-4-4-4-4-4-4-4-4-4-777--|
|-------------------------------------------------------------------||-------------------------------------------------------------------||-------------------------------------------------------------------||--0-0-0-0-0-0-0-0-0-0-0-0-0-0-0-0-2-2-2-2-2-2-2-2-2-2-2-2-2-2-2-2--||--0-0-0-0-0-0-0-0-0-0-0-0-0-0-0-0-2-2-2-2-2-2-2-2-2-2-2-2-2-2-2-2--||--0-0-0-0-0-0-0-0-0-0-0-0-0-0-0-0-2-2-2-2-2-2-2-2-2-2-2-2-2-2-2-2--|
Second Part Of Verse 2: X2|-------9------------| X2|---------10-7-6-6^--||--------------------||--4-4---------------||--4-4---------------||--4-4---------------|
|----------------||----------------||----------------||--4p0--x-x-x-x--||--4p0--x-x-x-x--||--4p0--x-x-x-x--|
Leading Into Chorus: X1 (Listen to song for change of strumming)
|------------------------| X4|------------------------||--------10-10-10-10-10--||--4-4-4-11-11-11-11-11--||--4-4-4-11-11-11-11-11--||--2-2-2-9--9--9--9--9---|
|-----------------------------| X1|-----------------------------||-----------------------------||--2-2-2-2--2-2-2-2--2-2-2-2--||--2-2-2-2--2-2-2-2--2-2-2-2--||--2-2-2-2--2-2-2-2--2-2-2-2--|
Chorus: X2|-----------| X3|-----------||-----------||--4-4-4-4--||--4-4-4-4--||--4-4-4-4--|
|---------------------------------------||---------------------------------------||---------------------------------------||--7-7-7-2-2-2-0-0-0-0-0-0-0-0-0-0-0-0--||--7-7-7-2-2-2-0-0-0-0-0-0-0-0-0-0-0-0--||--7-7-7-2-2-2-0-0-0-0-0-0-0-0-0-0-0-0--|
|---------------------------||---------------------------||---------------------------||--7-7-7-7-7-7-9-9-9-9-9-9--||--7-7-7-7-7-7-9-9-9-9-9-9--||--7-7-7-7-7-7-9-9-9-9-9-9--|
After 2nd Chorus: X2
|---------------------------| X3|-----------------12-12-12--||-----------------11-11-11--||--4-x-x-x-x-x-x------------||--4-x-x-x-x-x-x------------||--4-x-x-x-x-x-x------------|
|------------| X1 (Second Time Do ---->) |---------||------------| |---------||--11-13-14--| |---------||--x--x--x---| |--0-0-0--||--9--11-12--| |--0-0-0--||------------| |--0-0-0--|
Bridge Part: X1|----------------------------------------||----------------------------------------||-------------6---7----------------------||--4-x-6^-2-x---x--x-x-x-6-x-x-9-x-x-6^--||--4-x----2-x---x--x-x-x---x-x---x-x-----||--4-x----2-x---x--x-x-x---x-x---x-x-----|
|--------------------------------------------||--------------------------------------------||--------------------------------------------||--4-4-4-4-4-2-2-2-2-2-x-x-x-6-x-x-9-x-x-6^--||--4-4-4-4-4-2-2-2-2-2-x-x-x---x-x---x-x-----||--4-4-4-4-4-2-2-2-2-2-x-x-x---x-x---x-x-----|
|-------------------------------------------||-------------------------------------------||-------------6---7-------------------------||--4-x-6^-2-x---x---x-x-x-6-x-x-9-x-x-6^----||--4-x----2-x---x---x-x-x---x-x---x-x-------||--4-x----2-x---x---x-x-x---x-x---x-x-------|
|--------------------------------------------------------||--------------------------------------------------------||-------------6---7--------------------------------------||--4-x-6^-2-x---x----0-0-0-0--0-0-0-0--0-0-0-0--0-0-0-0--||--4-x----2-x---x----0-0-0-0--0-0-0-0--0-0-0-0--0-0-0-0--||--4-x----2-x---x----0-0-0-0--0-0-0-0--0-0-0-0--0-0-0-0--|
Last Half Chorus:|---------------------------------------||---------------------------------------||---------------------------------------||--7-7-7-2-2-2-0-0-0-0-0-0-0-0-0-0-0-0--||--7-7-7-2-2-2-0-0-0-0-0-0-0-0-0-0-0-0--||--7-7-7-2-2-2-0-0-0-0-0-0-0-0-0-0-0-0--|
|---------------------------||---------------------------||---------------------------||--7-7-7-7-7-7-9-9-9-9-9-9--||--7-7-7-7-7-7-9-9-9-9-9-9--||--7-7-7-7-7-7-9-9-9-9-9-9--|
|-----------| X3|-----------||-----------||--4-4-4-4--||--4-4-4-4--||--4-4-4-4--|
|---------------------------------------||---------------------------------------||---------------------------------------||--7-7-7-2-2-2-0-0-0-0-0-0-0-0-0-0-0-0--||--7-7-7-2-2-2-0-0-0-0-0-0-0-0-0-0-0-0--||--7-7-7-2-2-2-0-0-0-0-0-0-0-0-0-0-0-0--|
|---------------------------||---------------------------||---------------------------||--7-7-7-7-7-7-9-9-9-9-9-9--||--7-7-7-7-7-7-9-9-9-9-9-9--||--7-7-7-7-7-7-9-9-9-9-9-9--|
End Riff:|----0-0-0--| X3|----5-7-7--||-----------||--4--------||--4--------||--4--------|
|---------||---------||---------||--0-0-0--||--0-0-0--||--0-0-0--|
|------0-0-----0-0---0-0--------||------5-5-----7-7---5-5--------||-------------------------------||--4-x-----4-x-----4-----0-0-0--||--4-x-----4-x-----4-----0-0-0--||--4-x-----4-x-----4-----0-0-0--|
Tap to rate this tab
 
# A B C D E F G H I J K L M N O P Q R S T U V W X Y Z