My Chemical Romance - The Kids From Yesterday tab version 1

Standard Tuning: EADGBe

Intro

Ray Toro

|--------------------------------------------||--------------------------------------------||-14-(x10)-16-(x4)---------------------------||------------------16-(x10)-14-(x4)----------||--------------------------------------------||--------------------------------------------|
Frank Iero end with...
|--------------------------------------| |-----||--------------------------------------| |-----||-777777777777/9999/777777777777/6666--| x2 |--7~-||-xxxxxxxxxxxx/xxxx/xxxxxxxxxxxx/xxxx--| |--x--||-555555555555/7777/555555555555/4444--| |--5~-||--------------------------------------| |-----|
Instrumental during the verse
|--------------||--------------||-------14~----||-12-14--------||--------------||--------------|
Pre-chorus
part 1|------------------------------------||------------------------------------||-------------------------7777777----| x2 *=PM|-5555555-7777777-9999999-7777777----||-5555555-7777777-9999999-5555555----||-3333333-5555555-7777777------------|
******* ******* ******* *******part 2|----------------------------------------------------||----------------------------------------------------||-----------------7777777----------------------------||-5555555-7777777-7777777-5555555-5555555-7777777----||-5555555-7777777-5555555-5555555-5555555-7777777----||-3333333-5555555---------3333333-3333333-5555555----| ******* ******* ******* ******* ******* *******
Chorus Ray Toro
|-----------------------------------||-----------------------------------||-14------/16------/11------/9------||-x-(x10)-/x--(x4)-/x--(x10)/x-(x4)-||-12------/14------/9-------/7------||-----------------------------------|
Frank Iero end with...
|--------------------------------------| |-----||--------------------------------------| |-----||-777777777777/9999/777777777777/6666--| x2 |--7~-||-xxxxxxxxxxxx/xxxx/xxxxxxxxxxxx/xxxx--| |--x--||-555555555555/7777/555555555555/4444--| |--5~-||--------------------------------------| |-----|
Instrumental during the verse
|--------------||--------------||-------14~----||-12-14--------||--------------||--------------|
Pre-chorus
part 1|------------------------------------||------------------------------------||-------------------------7777777----| x2 *=PM|-5555555-7777777-9999999-7777777----||-5555555-7777777-9999999-5555555----||-3333333-5555555-7777777------------|
******* ******* ******* *******part 2|----------------------------------------------------||----------------------------------------------------||-----------------7777777----------------------------||-5555555-7777777-7777777-5555555-5555555-7777777----||-5555555-7777777-5555555-5555555-5555555-7777777----||-3333333-5555555---------3333333-3333333-5555555----| ******* ******* ******* ******* ******* *******
bridge
|----------------------------------------------------------------------------------------||----------------------------------------------------------------------------------------||-7777777/9999/1111111111-7777777/9999/666666/444/777777/9999/111111111-7777777777/666---| x2|-xxxxxxx/xxxx/x-x-x-x-x--xxxxxxx/xxxx/xxxxxx/xxx/xxxxxx/xxxx/x-x-x-x-x-xxxxxxxxxx/xxx---| |-5555555/7777/9-9-9-9-9--5555555/7777/444444/222/555555/7777/9-9-9-9-9-5555555555/444---||----------------------------------------------------------------------------------------|
pre-chorus
part 1|------------------------------------||------------------------------------||-------------------------7777777----| x2|-5555555-7777777-9999999-7777777----||-5555555-7777777-9999999-5555555----||-3333333-5555555-7777777------------|
part 2|----------------------------------------------------||----------------------------------------------------||-----------------7777777----------------------------||-5555555-7777777-7777777-5555555-5555555-7777777----||-5555555-7777777-5555555-5555555-5555555-7777777----||-3333333-5555555---------3333333-3333333-5555555----|
Chorus Ray Toro
|----------------------------------||----------------------------------||-14-----/16-----/11------/9-------||-x-(x10)/x--(x4)/x--(x10)/x-(x4)--||-12-----/14-----/9-------/7-------||----------------------------------|
Frank Iero end with...
|--------------------------------------| |-----||--------------------------------------| |-----||-777777777777/9999/777777777777/6666--| x2 |--7~-||-xxxxxxxxxxxx/xxxx/xxxxxxxxxxxx/xxxx--| |--x--||-555555555555/7777/555555555555/4444--| |--5~-||--------------------------------------| |-----|
3rd guitar
|-------------------------------------------------------||-15151515151515151515-14-121212-14-151515151515151515--| til the end...|-------------------------------------------------------||-------------------------------------------------------||-------------------------------------------------------||-------------------------------------------------------|
Tap to rate this tab
 
# A B C D E F G H I J K L M N O P Q R S T U V W X Y Z