My Dying Bride – Kneel Till Doomsday tab

MY DYING BRIDE

KNEEL TILL DOOMSDAY

C#-F#-B-E-G#-C#


TABBED BY-andherembrace





---------------------------------------------------------------|---------------------------------------------------------------|---------------------------------------------------------------|---------------------------------------------------------------|----------4----------------------------------)-----------------|1---1-1-------1---1--1/4-4-2-2----1---1-1---1-----1--1-0-0-4-4-|
0:20L---------------------------------------------------------------|---------------------------------------------------------------|---------------------------------------------------------------|---------------------------------------------------------------|----------4----------------------------------)-----------------|1---1-1-------1---1--1/4-4-2-2----1---1-1---3-----1--1-0-0-4-4-|
R---------------------------------------------------------------|---------------------------------------------------------------|---------------------------------------------------------------|---------------------------------------------------------------|3---------4---3--------------4----3----------)-----------------|--------------------------------------------3-----1--1-0-0-4-4-|
0:35B---------------------------------------------------------------|---------------------------------------------------------------|---------------------------------------------------------------|---------------------------------------------------------------|----------4----------------------------------)-----------------|1---1-1-------1---1--1/4-4-2-2----1---1-1---1-----1--1-0-0-4-4-|
---------------------------------------------------------------|---------------------------------------------------------------|---------------------------------------------------------------|---------------------------------------------------------------|----------4----------------------------------)-----------------|1---1-1-------1---1--1/4-4-2-2----1---1-1---1-----1--1-0-0-4-4-|
---------------------------------------------------------------|---------------------------------------------------------------|---------------------------------------------------------------|---------------------------------------------------------------|----------4----------------------------------)-----------------|1---1-1-------1---1--1/4-4-2-2----1---1-1---1-----1--1-0-0-4-4-|
1:24L---------------------------------------------------------------|---------------------------------------------------------------|---------------------------------------------------------------|---------------------------------------------------------------|----------4----------------------------------)---------2-22----|1---1-1-------1---1--1/4-4-2-2----1---1-1---3-----1--1-0-00----|
R * **---------------------------------------------------------------|---------------------------------------------------------------|---------------------------------------------------------------|---------------------------------------------------------------|3---3-3---4---3---3--3/4-4-3-6----3---3-3----)---------2-22----|--------------------------------------------3-----1--1-0-00----| * **
1:46L---------------------------------------------------------------|---------------------------------------------------------------|---------------------------------------------------------------|---------------------------------------------------------------|---------------------------------------------------------------|-000--000-000-000-000-000-000-000-000-000-000-000-000-000-000--|
*** *** *** *** *** *** *** *** *** *** *** *** *** *** ***R------------------------------------------------------------------------|------------------------------------------------------------------------|------9---8---------------------------9---8---------------------------^-|--------------10--9-------9---8---------------10--9------------------898|---------------------10-------------------------------10------7-9-10----|-000-------------------00---------000-----------------------------------| *** ** *** * * *
L---------------------------------------------------------------|---------------------------------------------------------------|---------------------------------------------------------------|---------------------------------------------------------------|---------------------------------------------------------------|-000--000-000-000-000-000-000-000-000-000-000-000-000-000-000--|
*** *** *** *** *** *** *** *** *** *** *** *** *** *** ***R------------------------------------------------------------------------|------------------------------------------------------------------------|------9---8---------------------------9---8---------------------------^-|--------------10--9-------9---8---------------10--9------------------898|---------------------10-------------------------------10------7-9-10----|-000-------------------00---------000-----------------------------------| *** ** *** * * *
------------------------------------------------------------------------|------------------------------------------------------------------------|------9---8--------------------------/9---8---------------------------^-|--------------10--9-------9---8---------------10--9------------------898|---------------------10-------------------------------10------7-9-10----|-000--------------------------------------------------------------------| *** * * *
------------------------------------------------------------------------|------------------------------------------------------------------------|------9---8--------------------------/9---8---------------------------^-|--------------10--9-------9---8---------------10--9------------------898|---------------------10-------------------------------10------7-9-10----|-000--------------------------------------------------------------------| *** * * *
2:18
------------------------------------------------------------------|------------------------------------------------------------------|------------------------------------------------------------------|7-7777777101010-10101010101010-1210-9-9999-55-55-121212-12121212--|5-5555555-8-8-8--8-8-8-8-8-8-8-10-8-7-7777-33-33-101010-10101010--|5-5555555/8-8-8--8-8-8-8-8-8-8/10\8-7-7777\33-33/101010-10101010\-|
------------------------------------|------------------------------------|------------------------------------|7-7777777101010-10101010101010-1210-|5-5555555-8-8-8--8-8-8-8-8-8-8-10-8-|5-5555555/8-8-8--8-8-8-8-8-8-8/10\8-|
2:28-------------------------------------------------------------|-------------------------------------------------------------|-----/9---8--------------------------/9---8------------------|---------------------/10--9----------------------------------|---------------------------------------------------/10---9---|-000-------------000------------000------------000-----------| *** *** *** ***
-------------------------------------------------------------|-------------------------------------------------------------|-----/9---8--------------------------/9---8------------------|---------------------/10--9----------------------------------|---------------------------------------------------/9---8--\-|-000-------------000------------000------------000---------\-| *** *** *** ***
2:44------------------------------------------------------------------|------------------------------------------------------------------|------------------------------------------------------------------|7-7777777101010-10101010101010-1210-9-9999-55-55-121212-12121212--|5-5555555-8-8-8--8-8-8-8-8-8-8-10-8-7-7777-33-33-101010-10101010--|5-5555555/8-8-8--8-8-8-8-8-8-8/10\8-7-7777\33-33/101010-10101010\-|
------------------------------------|------------------------------------|------------------------------------|7-7777777101010-10101010101010-1210-|5-5555555-8-8-8--8-8-8-8-8-8-8-10-8-|5-5555555/8-8-8--8-8-8-8-8-8-8/10\8-|
2:56L---------------------------------------------------------------|---------------------------------------------------------------|---------------------------------------------------------------|---------------------------------------------------------------|---------------------------------------------------------------|-000--000-000-000-000-000-000-000-000-000-000-000-000-000-000--|
*** *** *** *** *** *** *** *** *** *** *** *** *** *** ***R------------------------------------------------------------------------|------------------------------------------------------------------------|------9---8---------------------------9---8---------------------------^-|--------------10--9-------9---8---------------10--9------------------898|---------------------10-------------------------------10------7-9-10----|-000-------------------00---------000-----------------------------------| *** ** *** * * *
L---------------------------------------------------------------|---------------------------------------------------------------|---------------------------------------------------------------|---------------------------------------------------------------|---------------------------------------------------------------|-000--000-000-000-000-000-000-000-000-000-000-000-000-000-000--|
*** *** *** *** *** *** *** *** *** *** *** *** *** *** ***R------------------------------------------------------------------------|------------------------------------------------------------------------|------9---8---------------------------9---8---------------------------^-|--------------10--9-------9---8---------------10--9------------------898|---------------------10-------------------------------10------7-9-10----|-000-------------------00---------000-----------------------------------| *** ** *** * * *
------------------------------------------------------------------------|-------------------------------------PH--PH-----------------------------|------9---8-------------------PH------9---8---PH-PH-------------------^-|--------------10--9-------9---8---------------10--9---PH-------------898|---------------------10-------------------------------10------7-9-10----|-000--------------------------------------------------------------------| *** * * *
------------------------------------------------------------------------|-------------------------------------PH--PH-----------------------------|------9---8-------------------PH------9---8---PH-PH-------------------^-|--------------10--9-------9---8---------------10--9---PH-------------898|---------------------10-------------------------------10------7-9-10----|-000--------------------------------------------------------------------| *** * * *
------------------------------------------------------------------|------------------------------------------------------------------|------------------------------------------------------------------|7-7777777101010-10101010101010-1210-9-9999-55-55-121212-12121212--|5-5555555-8-8-8--8-8-8-8-8-8-8-10-8-7-7777-33-33-101010-10101010--|5-5555555/8-8-8--8-8-8-8-8-8-8/10\8-7-7777\33-33/101010-10101010\-|
------------------------------------|------------------------------------|------------------------------------|7-7777777101010-10101010101010-1210-|5-5555555-8-8-8--8-8-8-8-8-8-8-10-8-|5-5555555/8-8-8--8-8-8-8-8-8-8/10\8-|
3:38
----------------------------------------------|----------------------------------------------|----------------------------------------------|----------PH----------------------------------|2-----/7--6~----------------------------------|0---------------7-8-7-5-7-5-3-5-3-1-3-0-------| * * * * * * * * *
-------------------------------------------------------|-12------/\-------------------12------/\---------------|----11-111211-9-11-12-9----------11-111211-9-11-12-8---|-------------------------------------------------------|-------------------------------------------------------|-------------------------------------------------------|
----------------------------------|-12------/\-----------------------|----11-111211-9-11-12--/15~~~-15~~|----------------------------------|----------------------------------|----------------------------------|
3:58
----------------------------------------------------------------------|----------------------------------------------------------------------|----------------------------------------------------------------------|----------------------------------------------------------------------|------88887777--------8888777710101010----88887777----------------4444|-0000---------66660000----------------0000--------6666000011113333----| ***************************** * * * *********************************
----------------------------------------------------------------------|----------------------------------------------------------------------|----------------------------------------------------------------------|----------------------------------------------------------------------|------88887777--------8888777710101010----88887777----------------4444|-0000---------66660000----------------0000--------6666000011113333----| ***************************** * * * *********************************
4:09L----------------------------------------------------------------------|----------------------------------------------------------------------|----------------------------------------------------------------------|----------------------------------------------------------------------|------88887777--------8888777710101010----88887777----------------4444|-0000---------66660000----------------0000--------6666000011113333----|
***************************** * * * *********************************R higher harmony 4 notes each----------------------------------------------------------------------|----------------------------------------------------------------------|----------------------------------------------------------------------|-----10s--9s----------10s--9s-12s---------10s--9s---------------------|--------------8s----------------------------------8s--------------4444|-0000------------0000----------------0000-------------000011113333----|
L----------------------------------------------------------------------|----------------------------------------------------------------------|----------------------------------------------------------------------|----------------------------------------------------------------------|------88887777--------8888777710101010----88887777----------------4444|-0000---------66660000----------------0000--------6666000011113333----|
***************************** * * * *********************************R higher harmony 4 notes each----------------------------------------------------------------------|----------------------------------------------------------------------|----------------------------------------------------------------------|-----10s--9s----------10s--9s-12s---------10s--9s---------------------|--------------8s----------------------------------8s--------------4444|-0000------------0000----------------0000-------------000011113333----|
4:18------------------------------------------------------------------|------------------------------------------------------------------|------------------------------------------------------------------|------------------------------------------------------------------|-------------------------------------------------44443333---------|-000000001111111100000000333366660000000011111111--------55552222-|
****************************************************************------------------------------------------------------------------|------------------------------------------------------------------|------------------------------------------------------------------|------------------------------------------------------------------|-------------------------------------------------44443333---------|-000000001111111100000000333366660000000011111111--------55552222-| ****************************************************************
------------------------------------------------------------------|------------------------------------------------------------------|------------------------------------------------------------------|------------------------------------------------------------------|-------------------------------------------------44443333---------|-000000001111111100000000333366660000000011111111--------55552222-|
****************************************************************------------------------------------------------------------------|------------------------------------------------------------------|------------------------------------------------------------------|------------------------------------------------------------------|-------------------------------------------------44443333---------|-000000001111111100000000333366660000000011111111--------55552222-| ****************************************************************
4:40
---------------------------------------------------------------|---------------------------------------------------------------|---------------------------------------------------------------|---------------------------------------------------------------|----------4----------------------------------)-----------------|1---1-1-------1---1--1/4-4-2-2----1---1-1---1-----1--1-0-0-4-4-|
L---------------------------------------------------------------|---------------------------------------------------------------|---------------------------------------------------------------|---------------------------------------------------------------|----------4----------------------------------)-----------------|1---1-1-------1---1--1/4-4-2-2----1---1-1---3-----1--1-0-0-4-4-|
R---------------------------------------------------------------|---------------------------------------------------------------|---------------------------------------------------------------|---------------------------------------------------------------|3---------4---3--------------4----3----------)-----------------|--------------------------------------------3-----1--1-0-0-4-4-|
L---------------------------------------------------------------|---------------------------------------------------------------|---------------------------------------------------------------|---------------------------------------------------------------|----------4----------------------------------)-----------------|1---1-1-------1---1--1/4-4-2-2----1---1-1---3-----1--1-0-0-4-4-|
R ---------------------------------------------------------------|---------------------------------------------------------------|---------------------------------------------------------------|---------------------------------------------------------------|3---3-3---4---3---3--3/4-4-3-6----3---3-3----)-----------------|--------------------------------------------3-----1--1-0-0-4-4-|
L---------------------------------------------------------------|---------------------------------------------------------------|---------------------------------------------------------------|---------------------------------------------------------------|----------4----------------------------------)-----------------|1---1-1-------1---1--1/4-4-2-2----1---1-1---3-----1--1-0-0-4-4-|
R ---------------------------------------------------------------|---------------------------------------------------------------|---------------------------------------------------------------|---------------------------------------------------------------|3---3-3---4---3---3--3/4-4-3-6----3---3-3----)-----------------|--------------------------------------------3-----1--1-0-0-4-4-|
---------------------------------------------------------------|---------------------------------------------------------------|---------------------------------------------------------------|---------------------------------------------------------------|----------4----------------------------------)-----------------|1---1-1-------1---1--1/4-4-2-2----1---1-1---1-----1--1-0-0-4-4-|
---------------------------------------------------------------|---------------------------------------------------------------|---------------------------------------------------------------|---------------------------------------------------------------|----------4----------------------------------)-----------------|1---1-1-------1---1--1/4-4-2-2----1---1-1---1-----1--1-0-0-4-4-|
---------------------------------------------------------------|---------------------------------------------------------------|---------------------------------------------------------------|---------------------------------------------------------------|----------4----------------------------------)-----------------|1---1-1-------1---1--1/4-4-2-2----1---1-1---1-----1--1-0-0-4-4-|
---------------------------------------------------------------|---------------------------------------------------------------|---------------------------------------------------------------|---------------------------------------------------------------|----------4----------------------------------)-----------------|1---1-1-------1---1--1/4-4-2-2----1---1-1---1-----1--1-0-0-4-4-|
---------------------------------------------------------------|---------------------------------------------------------------|---------------------------------------------------------------|---------------------------------------------------------------|----------4----------------------------------)-----------------|1---1-1-------1---1--1/4-4-2-2----1---1-1---1-----1--1-0-0-4-4-|
---------------------------------------------------------------|---------------------------------------------------------------|---------------------------------------------------------------|---------------------------------------------------------------|----------4----------------------------------)-----------------|1---1-1-------1---1--1/4-4-2-2----1---1-1---1-----1--1-0-0-4-4-|
L---------------------------------------------------------------|---------------------------------------------------------------|---------------------------------------------------------------|---------------------------------------------------------------|----------4----------------------------------)-----------------|1---1-1-------1---1--1/4-4-2-2----1---1-1---3-----1--1-0-0-4-4-|
R ---------------------------------------------------------------|---------------------------------------------------------------|---------------------------------------------------------------|---------------------------------------------------------------|3---3-3---4---3---3--3/4-4-3-6----3---3-3----)-----------------|--------------------------------------------3-----1--1-0-0-4-4-|
L---------------------------------------------------------------|---------------------------------------------------------------|---------------------------------------------------------------|---------------------------------------------------------------|----------4----------------------------------)---------2-22----|1---1-1-------1---1--1/4-4-2-2----1---1-1---3-----1--1-0-00----|
R * **---------------------------------------------------------------|---------------------------------------------------------------|---------------------------------------------------------------|---------------------------------------------------------------|3---3-3---4---3---3--3/4-4-3-6----3---3-3----)---------2-22----|--------------------------------------------3-----1--1-0-00----| * **
Please rate this tab:
x1.0