Mychildren Mybride - Crimson Grim tab

Tempo = 200
Guitar 

Legend
L - tied note
x - dead note
h - hammer on/pull off
b - bend
s - slide
~ - vibrato
g - ghost note
> - accentuated note
t - trill
M - palm mute
. - staccato
P - popping (bass)
S - slapping (bass)
+ - tapping
W - wide vibrato
< - fade in
w - whammy bar
= - tremolo picking
v - brush up
^ - brush down
V - pick stroke up
n - pick stroke down

 
Main Riff x 2 C#|----|----------------------------|----------------------------|G#|----|----------------------------|----------------------------|E |----|----------------------------|----------------------------|B |----|----------------------------|-----------5----------------|F#|----|--5h-3----------------------|--5h-3--------6-----3--5----|B |----|--------x--0--x--0--x--0----|--------0M-------0M---------|
----------------------------|----------------------------|----------------------------|----------------------------|----------------------------|----------------------------|----------------------------|----------------------------|--6--5----------------------|--5--1-----------------1----|--------x--0--x--0--x--0----|--------5--0--1--4--5-------|
----------------------------|----------------------------|----------------------------|----------------------------|----------------------------|----------------------------|----------------------------|-----------5----------------|--5h-3----------------------|--5h-3--------6-----3--5----|--------x--0--x--0--x--0----|--------0M-------0M---------|
----------------------------|----------------------------|----------------------------|----------------------------|----------------------------|--7-------------------------|----------------------------|-----8--5--------4--5--8----|--6--5----------------------|-----------5--6-------------|--------x--0--x--0--x--0----|----------------------------|
Breakdown 1 ----------------------------|----------------------------|----------------------------|----------------------------|----------------------------|----------------------------|----------------------------|----------------------------|----------------------------|----------------------------|--0--0--0--0----------------|----------------------------|
----------------------------|----------------------------|----------------------------|----------------------------|----------------------------|----------------------------|----------------------------|----------------------------|----------------------------|--5M-1M----------------1M---|--0--0--0--0-----0-----0----|--------5M-0M-1M-4M-5M------|
----------------------------|----------------------------|----------------------------|----------------------------|----------------------------|----------------------------|----------------------------|----------------------------|----------------------------|----------------------------|--0--0--0--0----------------|----------------------------|
----------------------------|----------------------------|----------------------------|----------------------------|----------------------------|----------------------------|----------------------------|----------------------------|----------------------------|--5--1----------------------|--0--0--0--0-----0----------|--------5--0--1--4--5-------|
----------------------------|----------------------------|----------------------------|----------------------------|----------------------------|----------------------------|----------------------------|----------------------------|----------------------------|----------------------------|--0--0--0--0----------------|----------------------------|
----------------------------|----------------------------|----------------------------|----------------------------|----------------------------|----------------------------|----------------------------|----------------------------|----------------------------|--5M-1M----------------1M---|--0--0--0--0-----0----------|--------5M-0M-1M-4M-5M------|
----------------------------|----------------------------|----------------------------|----------------------------|----------------------------|----------------------------|----------------------------|----------------------------|----------------------------|----------------------------|--0--0--0--0----------------|----------------------------|
----------------------------|----------------------------|----------------------------|----------------------------|----------------------------|----------------------------|----------------------------|----------------------------|----------------------------|--5--1-----------------1----|--0--0--0--0-----0-----0----|--------5--0--1--4--5-------|
Pre-Chorus x2 ----------------|----------------|----------------|----------------|----------------|----------------|----------------|----------------|----------------|----------------|----------------|----------------|--8--8--8--8----|--8--8--8--8----|--7--7--7--7----|--7--7--7--7----|--5--5--5--5----|--5--5--5--5----|--8--8--8--8----|--8--8--8--8----|--5--5--5--5----|--5--5--5--5----|--7--7--7--7----|--7--7--7--7----|
----------------|----------------|----------------|----------------|----------------|----------------|----------------|----------------|----------------|----------------|----------------|----------------|--5--5--5--5----|--5--5--5--5----|--8--8--8--8----|--8--8--8--8----|--7--7--7--7----|--7--7--7--7----|--10-10-10-10---|--10-10-10-10---|--5--5--5--5----|--5--5--5--5----|--8--8--8--8----|--8--8--8--8----|
Chorus (speedpicking) = = = = |----------|----------------||----------|----------------||----------|----------------||-----7----|----------------||--5-------|--5--3L----3----||----------|----------------|
= = = = = = = = = = = = = ----------------|----------------|----------|----------------|----------------|----------------|----------------|----------|----------------|----------------|----------------|----------------|----------|----------------|----------------|--------7--8----|--10-7-----8----|-----7----|----------------|----------------|--5-------------|----------------|--5-------|--5--3L----3----|----------------|----------------|----------------|----------|----------------|--5-----7--8----|
= = = = = = = = = = = = = ----------------|----------|----------------|----------------|----------------|----------------|----------|----------------|----------------|----------------|----------------|----------|----------------|----------------|----------------|--8--7-----3----|-----7----|----------------|--------7--8----|--10-7-----8----|----------------|--5-------|--5--3L----3----|--5-------------|----------------|----------------|----------|----------------|----------------|----------------|
= = = = ----------|----------------|----------|----------------|----------|----------------|-----7----|----------------|--5-------|--5--3L----3----|----------|----------------|
----------------------------------------------------|----|----------------------------------------------------|----|----------------------------------------------------|----|----------------------------------------------------|----|--------------------------0M-0M-0M----0M-0M-0M------|----|--------------------------0M-0M-0M----0M-0M-0M------|----|
Main Riff x2
Breakdown2 x3 ----------------------------|----------|----------------------------|----------------------------|----------|----------------------------|----------------------------|----------|----------------------------|----------------------------|----------|----------------------------|--0M-0M-0M-0M----0M-0M------|----------|--0M-0M-0M-0M----0M-0M------|--0M-0M-0M-0M----0M-0M------|----------|--0M-0M-0M-0M----0M-0M------|
----------------------------|----------------------------|----------------------------|----------------------------|--0M-0M-0M-0M----0M-0M------|--0M-0M-0M-0M----0M-0M------|
the 4th time you play this: |----------------------------|----------||----------------------------|----------||----------------------------|----------||----------------------------|----------||--0M-0M-0M-0M----0M-0M------|----------||--0M-0M-0M-0M----0M-0M------|----------|
----------------------------|----------------------------|----------------------------|----------------------------|----------------------------|----------------------------|----------------------------|----------------------------|--0M-0M-0M-0M----0M-0M------|--0M-------0M-------0M------|--0M-0M-0M-0M----0M-0M------|--0M-------0M-------0M------|
Pre-Chorus x2 Chorus
Bridge |-------|-------|-------|-------||-------|-------|-------|-------||-------|-------|-------|-------||--0L---|--0L---|--0L---|--0----||--0L---|--0L---|--0L---|--0----||--0L---|--0L---|--0L---|--0----|
----------------------------|----------------------------|----------------------------|----------------------------|----------------------------|----------------------------|--------------8-------------|-----------5----------------|--5--6-----5-----6--5-------|--5--6--------6--3-----5----|--------0--------------0----|--------0-----------0-------|
----------------------------|----------------------------|----------------------------|----------------------------|----------------------------|----------------------------|-----------------8----------|-----5-----------------5----|-----5--6-----5-----6--5----|--------6--5--3--5--6-------|--0--------0----------------|--0-------------------------|
Break 3 x2 ----------------------------|----------------------------|----------------------------|----------------------------|----------------------------|----------------------------|----------------------------|----------------------------|----------------------------|----------------------------|--1--0--------1--0-----0----|-----1--0-----1--0----------|
----------------------------|----------------------------|----------------------------|----------------------------|----------------------------|----------------------------|----------------------------|----------------------------|----------------------------|--5--1-----------------1----|--1--0--------1--0-----0----|--------5--0--1--4--5-------|
----------------------------|----------------------------|----------------------------|----------------------------|----------------------------|----------------------------|----------------------------|----------------------------|----------------------------|----------------------------|--1--0--------1--0-----0----|-----1--0-----1--0----------|
----------------------------|----------------------------|----------------------------|----------------------------|----------------------------|----------------------------|----------------------------|--8--------------------8----|----------------------------|-----6--5--------5--6-------|--1--0--------1--0-----0----|-----------7--8-------------|
and then the same, but now with two strings and both muted:----------------------------|----------------------------|----------------------------|----------------------------|----------------------------|----------------------------|----------------------------|----------------------------|--0--0--------0--0-----0----|-----0--0-----0--0----------|--1--0--------1--0-----0----|-----1--0-----1--0----------|
----------------------------|----------------------------|----------------------------|----------------------------|----------------------------|----------------------------|----------------------------|----------------------------|--0--0--------0--0-----0----|--5--1-----------------1----|--1--0--------1--0-----0----|--------5--0--1--4--5-------|
----------------------------|----------------------------|----------------------------|----------------------------|----------------------------|----------------------------|----------------------------|----------------------------|--0--0--------0--0-----0----|-----0--0-----0--0----------|--1--0--------1--0-----0----|-----1--0-----1--0----------|
----------------------------|----------------------------|----------------------------|----------------------------|----------------------------|----------------------------|----------------------------|--8--------------------8----|--0--0--------0--0-----0----|-----6--5--------5--6-------|--1--0--------1--0-----0----|-----------7--8-------------|
----------------------------|----------------------------|----------------------------|----------------------------|----------------------------|----------------------------|----------------------------|----------------------------|--0--0--------0--0-----0----|-----0--0-----0--0----------|--1--0--------1--0-----0----|-----1--0-----1--0----------|
----------------------------|----------------------------|----------------------------|----------------------------|----------------------------|----------------------------|----------------------------|----------------------------|--0--0--------0--0-----0----|--5--1-----------------1----|--1--0--------1--0-----0----|--------5--0--1--4--5-------|
----------------------------|----------------------------|----------------------------|----------------------------|----------------------------|----------------------------|----------------------------|----------------------------|--0--0--------0--0-----0----|-----0--0-----0--0----------|--1--0--------1--0-----0----|-----1--0-----1--0----------|
----------------------------|----------------------------|----------------------------|----------------------------|----------------------------|----------------------------|----------------------------|----------------------------|--0--0--------0--0-----0----|--5--5--5--5--5--5--5--5----|--1--0--------1--0-----0----|--5--5--5--5--5--5--5--5----|
pre-chorus (variation) x2 < < < < < -------|-------|-------|-------|-------|-------|-------|-------|-------|-------|-------|-------|-------|-------|-------|-------|--7L---|--7----|--10L--|--10---|--9L---|--9----|--12L--|--12---|--8L---|--8----|--7L---|--7----|--5L---|--5----|--8L---|--8----|--5L---|--5----|--8L---|--8----|--7L---|--7----|--10L--|--10---|-------|-------|-------|-------|-------|-------|-------|-------|
final chorus
ending:|----------------------------|----------------------------|||----------------------------|----------------------------|||----------------------------|----------------------------|||----------------------------|----------------------------|||--5h-3----------------------|--0M-0M-0M-0M-0M------------|||--------x--0--x--0--x--0----|--0M-0M-0M-0M-0M------------||
Tap to rate this tab
 
# A B C D E F G H I J K L M N O P Q R S T U V W X Y Z