Napalm Death - Placate Sedate Eradicate tab

-------------------------------------------------------------------------------
	            Placate, Sedate, Eradicate - Napalm Death
-------------------------------------------------------------------------------
Tabbed by: Rockstar_imn
Email: RRockstar90c@aol.com

Tuning: Drop C

Artist: Napalm Death
Song: Placate, Sedate, Eradicate
Album: Diatribes

| pm  Palm Mute

===============================================================================

Bass plays the same riff four times before the guitar comes in.Main Riff|------------------------||------------------------||------------------------||----5-----------5-------||-4--3--4-4---4--3---4---||-2-----2-2-0-2----0-2-0-| x4
|---------------------------------------------------------------------------||---------------------------------------------------------------------------||---------------------------------------------------------------------------||------|-----pm------|-----------------|----pm-----|------------------------||-4-2-4-4-4-4-4-4-4-4-4-2-4-4-----4-2-4-4-4-4-4-4-4-4-2-4-10-10-10-10-10-10-||-2-0-2-2-2-2-2-2-2-2-2-0-2---3-0-2-0-2-2-2-2-2-2-2-2-0-2-------------------|
|---------------------------------------------------------------------------||---------------------------------------------------------------------------||---------------------------------------------------------------------------||------|-----pm------|-----------------|----pm-----|------------------------||-4-2-4-4-4-4-4-4-4-4-4-2-4-4-----4-2-4-4-4-4-4-4-4-4-2-4-10-10-10-10-10-10-||-2-0-2-2-2-2-2-2-2-2-2-0-2---3-0-2-0-2-2-2-2-2-2-2-2-0-2-------------------|
|------------------------||------------------------||------------------------||----5-----------5-------||-4--3--4-4---4--3---4---||-2-----2-2-0-2----0-2-0-| x4
|---------------------------------------------------------------------------||---------------------------------------------------------------------------||---------------------------------------------------------------------------||------|-----pm------|-----------------|----pm-----|------------------------||-4-2-4-4-4-4-4-4-4-4-4-2-4-4-----4-2-4-4-4-4-4-4-4-4-2-4-10-10-10-10-10-10-||-2-0-2-2-2-2-2-2-2-2-2-0-2---3-0-2-0-2-2-2-2-2-2-2-2-0-2-------------------|
|---------------------------------------------------------------------------||---------------------------------------------------------------------------||---------------------------------------------------------------------------||------|-----pm------|-----------------|----pm-----|------------------------||-4-2-4-4-4-4-4-4-4-4-4-2-4-4-----4-2-4-4-4-4-4-4-4-4-2-4-10-10-10-10-10-10-||-2-0-2-2-2-2-2-2-2-2-2-0-2---3-0-2-0-2-2-2-2-2-2-2-2-0-2-------------------|
|-------------------------||-------------------------||-------------------------||-------------------------||---4---3---2---1---1---2-||-4---3---2---1---0---1---| x4
|------------------------||------------------------||------------------------||----5-----------5-------||-4--3--4-4---4--3---4---||-2-----2-2-0-2----0-2-0-| x4
|---------------------------------------------------------------------------||---------------------------------------------------------------------------||---------------------------------------------------------------------------||------|-----pm------|-----------------|----pm-----|------------------------||-4-2-4-4-4-4-4-4-4-4-4-2-4-4-----4-2-4-4-4-4-4-4-4-4-2-4-10-10-10-10-10-10-||-2-0-2-2-2-2-2-2-2-2-2-0-2---3-0-2-0-2-2-2-2-2-2-2-2-0-2-------------------|
|---------------------------------------------------------------------------||---------------------------------------------------------------------------||---------------------------------------------------------------------------||------|-----pm------|-----------------|----pm-----|------------------------||-4-2-4-4-4-4-4-4-4-4-4-2-4-4-----4-2-4-4-4-4-4-4-4-4-2-4-10-10-10-10-10-10-||-2-0-2-2-2-2-2-2-2-2-2-0-2---3-0-2-0-2-2-2-2-2-2-2-2-0-2-------------------|
|-------------------------||-------------------------||-------------------------||-------------------------||---4---3---2---1---1---2-||-4---3---2---1---0---1---| x4
|-----------------------------------------------------||-----------------------------------------------------||-----------------------------------------------------||-----------------------------------------------------||-5-6-6-6-6-12-11-11-11-11-11-11-12-11-11-11-11-11-11-||-3-4-4-4-4-------------------------------------------| x2
|---------------------------------------------------------------------------------------------||---------------------------------------------------------------------------------------------||---------------------------------------------------------------------------------------------||-----------10-9-9-9-9-9-9-10-9-9-9-9-9-9-----------------------------------------------------||-5-6-6-6-6-------------------------------5-6-6-6-6-12-11-11-11-11-11-11-12-11-11-11-11-11-11-||-3-4-4-4-4-------------------------------3-4-4-4-4-------------------------------------------|
|-----------------------------------------------------||-----------------------------------------------------||-----------------------------------------------------||-----------------------------------------------------||-5-6-6-6-6-12-11-11-11-11-11-11-12-11-11-11-11-11-11-||-3-4-4-4-4-------------------------------------------| x2
|---------------------------------------------------------------------------------------------||---------------------------------------------------------------------------------------------||---------------------------------------------------------------------------------------------||-----------10-9-9-9-9-9-9-10-9-9-9-9-9-9-----------------------------------------------------||-5-6-6-6-6-------------------------------5-6-6-6-6-12-11-11-11-11-11-11-12-11-11-11-11-11-11-||-3-4-4-4-4-------------------------------3-4-4-4-4-------------------------------------------|
|-----------------------------------------------------||-----------------------------------------------------||-----------------------------------------------------||--|----pm-----|-------------|----pm-----|------------||-5-6-6-6-6-6-6-3-----2-----5-6-6-6-6-6-6-3-----2-----||-3-4-4-4-4-4-4---4-3---3-2-3-4-4-4-4-4-4---4-3---3-2-| x2
|-----------------------------------------------------||-----------------------------------------------------||-----------------------------------------------------||-----------------------------------------------------||-5-6-6-6-6-12-11-11-11-11-11-11-12-11-11-11-11-11-11-||-3-4-4-4-4-------------------------------------------| x2
|---------------------------------------------------------------------------------------------||---------------------------------------------------------------------------------------------||---------------------------------------------------------------------------------------------||-----------10-9-9-9-9-9-9-10-9-9-9-9-9-9-----------------------------------------------------||-5-6-6-6-6-------------------------------5-6-6-6-6-12-11-11-11-11-11-11-12-11-11-11-11-11-11-||-3-4-4-4-4-------------------------------3-4-4-4-4-------------------------------------------|
|-------------------------||-------------------------||-------------------------||-------------------------||---4---3---2---1---1---2-||-4---3---2---1---0---1---| x4
The bass plays this riff 4 times before the guitar like in the beginning of the song.|------------------------||------------------------||------------------------||----5-----------5-------||-4--3--4-4---4--3---4---||-2-----2-2-0-2----0-2-0-| x4
|---------------------------------------------------------------------------||---------------------------------------------------------------------------||---------------------------------------------------------------------------||------|-----pm------|-----------------|----pm-----|------------------------||-4-2-4-4-4-4-4-4-4-4-4-2-4-4-----4-2-4-4-4-4-4-4-4-4-2-4-10-10-10-10-10-10-||-2-0-2-2-2-2-2-2-2-2-2-0-2---3-0-2-0-2-2-2-2-2-2-2-2-0-2-------------------|
|-------------------------------------------------------------||-------------------------------------------------------------||-------------------------------------------------------------||------|-----pm------|-----------------|----pm-----|----------||-4-2-4-4-4-4-4-4-4-4-4-2-4-4-----4-2-4-4-4-4-4-4-4--4--2--4--||-2-0-2-2-2-2-2-2-2-2-2-0-2---3-0-2-0-2-2-2-2-2-2-2--2--0--2--|
Tap to rate this tab
 
# A B C D E F G H I J K L M N O P Q R S T U V W X Y Z