Nasum - Smile When Youre Dead tab

Band:  Nasum
Album: Grindwork
Song:  Smile When You're Dead

Copyright (c)  Grindwork Productions - 1994
Version 1.0 - January 14th, 2007

Transcribed By: Jordan J.
Email: spotlight_72@hotmail.com


.  - palm mute           /  - slide up to
\  - slide down to       ~  - vibrato
h  - hammer on           b  - Bend
p  - pull off            Suffixes for bend
t  - tap                 f  - full bend    h - half bend
ph - pinched harmonic    q  - quarter bend t - tap bend
*  - see comment         ^  - Hold bend    r release bend
x  - Stuccatto           ~  - vibrato bend
,  - slight palm mute    () - ghost note, sustained note
"  - tremolo note        <> - Trill

Tuning: Drop C:
(C G C F A D)

|--------------------------------------------------------||--------------------------------------------------------||--------------------------------------------------------||--------------------------------------------------------||-2-2-2--4-3--2-2-2--4-4---------------------------------||-0-0-0--2-5--0-0-0--2-2---------------------------------| ' ' ' ' ' ' ' '
|-----------------------------------------------------------||-----------------------------------------------------------||-----------------------------------------------------------||--------------------------------3-2------------------------||-2-2-2--4-3--2-2-2--4-5--5-4-2--1-0----2-3-2-5-4-----------||-0-0-0--2-5--0-0-0--2-3--3-2-0---------0-1-0-3-2-----------|
|--------------------------------------------------------||--------------------------------------------------------||--------------------------------------------------------||--------------------------------3-2---------------------||-2-2-2--4-3--2-2-2--4-5--5-4-2--1-0---4-----------------||-0-0-0--2-5--0-0-0--2-3--3-2-0--------2------------8ph--|
|--------------------------------------------------------||--------------------------------------------------------||--------------------------------------------------------||--------------------------------3-2---------------------||-2-2-2--4-3--2-2-2--4-5--5-4-2--1-0----2-3-2-5-4--------||-0-0-0--2-5--0-0-0--2-3--3-2-0---------0-1-0-3-2--------|
|--------------------------------------------------------||--------------------------------------------------------||--------------------------------------------------------||--------------------------------3-2---------------------||-2-2-2--4-3--2-2-2--4-5--5-4-2--1-0----4----------------||-0-0-0--2-5--0-0-0--2-3--3-2-0---------2-----------8ph--|
|-------------------||-------------------||-------------------||-------------------||-------------------||---12b\0-----------|
|--------------------------------------||--------------------------------------||--------------------------------------||--------------------------------------||-22222222222222222222222222222222222--||-00000000000000000000000000000000000--| '''''''''''''''''''''''''''''''''''
|---------------------||---------------------||---------------------||---------------------||-3/222222222222222---||-1/444444444444444---| '''''''''''''''
|--------------------------------------||--------------------------------------||--------------------------------------||--------------------------------------||-22222222222222222222222222222222222--||-00000000000000000000000000000000000--|
'''''''''''''''''''''''''''''''''''|----------------------||----------------------||----------------------||----------------------||-3/222222222222222-2--||-1/444444444444444-0--| '''''''''''''''
Finished.. As you can see, a lot of this song is palm muting, so keep that in mind. Questions and/or concerns, email me. =) Kings of Grind = Nasum! - Jordo.
Tap to rate this tab
 
# A B C D E F G H I J K L M N O P Q R S T U V W X Y Z