Neaera - Heavenhell tab version 1

Madball
Heavenhell

Please comment & Rate.
This tab is available for your own use. Do not copy/paste this onto other sites saying 
is your tab.


______
|Intro|


E|---------------------------------------------|B|---------------------------------------------|G|---------------------------------------------|D|---2-----------------------------------------|A|---2---------------------Pick Scrape---------|D|---2-----------------------------------------|
-----------------------------------------------|-----------------------------------------------|-----------------------------------------------|---2---------------------2-2-2--3-3-3--5-------|---2---------------------2-2-2--3-3-3--5-------|---2---------------------2-2-2--3-3-3--5-------|
GOD HELP ME! ________ |Part 2| x 2
-----------------------------------------------------|-----------------------------------------------------|-----------------------------------------------------|---2--2-----2--2-------------------------2-2---------|---2--2-----2--2-------------2/3\2-------2-2-----0-3-|---2--2-2-2-2--2-2-2-2-2-2-2-2/3\2--2-2--2-2-2-2-0-3-|
Pm........| Pm| PM|-------------------------------------------------------------|-------------------------------------------------------------|-------------------------------------------------------------|---2--2-----2--2---------------------------------------------|---2--2-----2--2---------------------------------------------|---2--2-2-2-2--2-2-2-2-2-2-2-2-2-2-2-3-3-3-3-5-5-5-5-3-5-3-2-| Pm| Pm........................................|
_______ |Verse|
---------------------------------|---------------------------------|---------------------------------|---2-------2--2--3--0--2-3-------| x 3---2-------2--2--3--0--2-3-------|---2---0-0-2--2--3--0--2-3-------|
--------------------------------------------|--------------------------------------------|--------------------------------------------|--------------------------------------------|---2---------------------------2------------|---2---2-2-2-3-3-3-5-5-5-3-5-3-2------------| Pm.....................|
_______________ |Repeat part 2|
-----------------------------------------------------|-----------------------------------------------------|-----------------------------------------------------|-----------------------------------------------------|---2--2-----2--2-------------2/3\2-------2-2-----0-3-|---2--2-2-2-2--2-2-2-2-2-2-2-2/3\2--2-2--2-2-2-2-0-3-|
Pm........| Pm| PM|-------------------------------------------------------------|-------------------------------------------------------------|-------------------------------------------------------------|-------------------------------------------------------------|---2--2-----2--2---------------------------------------------|---2--2-2-2-2--2-2-2-2-2-2-2-2-2-2-2-3-3-3-3-5-5-5-5-3-5-3-2-| Pm| Pm........................................|
________ |Part 3|
------------------------------------------------------------|------------------------------------------------------------|------------------------------------------------------------|------------------------------------------------------------|---0-----------3---2----------3-3-3-3--5---------3-3-3-3----|---0--0-0-0-0--3---2--2-2-2-2-3-3-3-3--5-5-5-5-5-3-3-3-3----|
------------------------------------------------------|------------------------------------------------------|------------------------------------------------------|---------------------------------3--3-----------------|---------------------------------3--3-----------------|---0--0--0--0--0--2--2--2--2--2--3--3-----------------|
------------------------------------------------------------|------------------------------------------------------------|------------------------------------------------------------|------------------------------------------------------------|---0-----------3---2----------3-3-3-3--5---------3-3-3-3----|---0--0-0-0-0--3---2--2-2-2-2-3-3-3-3--5-5-5-5-5-3-3-3-3----|
------------------------------------------------------------|------------------------------------------------------------|------------------------------------------------------------|------------------------------------GOD SAVE ME NOW !-------|------------------------------------------------------------|--2--2--2--3--3--3--5---------------------------------------|
______________ |Repeat Verse|
---------------------------------|---------------------------------|---------------------------------|---2-------2--2--3--0--2-3-------| x 3---2-------2--2--3--0--2-3-------|---2---0-0-2--2--3--0--2-3-------|
--------------------------------------------|--------------------------------------------|--------------------------------------------|--------------------------------------------|---2---------------------------2------------|---2---2-2-2-3-3-3-5-5-5-3-5-3-2------------| Pm.....................|
_______________ |Repeat part 2|
-----------------------------------------------------|-----------------------------------------------------|-----------------------------------------------------|-----------------------------------------------------|---2--2-----2--2-------------2/3\2-------2-2-----0-3-|---2--2-2-2-2--2-2-2-2-2-2-2-2/3\2--2-2--2-2-2-2-0-3-|
Pm........| Pm| PM|-------------------------------------------------------------|-------------------------------------------------------------|-------------------------------------------------------------|-------------------------------------------------------------|---2--2-----2--2---------------------------------------------|---2--2-2-2-2--2-2-2-2-2-2-2-2-2-2-2-3-3-3-3-5-5-5-5-3-5-3-2-| Pm| Pm........................................|
_______________ |Repeat Part 3|
------------------------------------------------------------|------------------------------------------------------------|------------------------------------------------------------|------------------------------------------------------------|---0-----------3---2----------3-3-3-3--5---------3-3-3-3----|---0--0-0-0-0--3---2--2-2-2-2-3-3-3-3--5-5-5-5-5-3-3-3-3----|
------------------------------------------------------|------------------------------------------------------|------------------------------------------------------|---------------------------------3--3-----------------|---------------------------------3--3-----------------|---0--0--0--0--0--2--2--2--2--2--3--3-----------------|
------------------------------------------------------------|------------------------------------------------------------|------------------------------------------------------------|------------------------------------------------------------|---0-----------3---2----------3-3-3-3--5---------3-3-3-3----|---0--0-0-0-0--3---2--2-2-2-2-3-3-3-3--5-5-5-5-5-3-3-3-3----|
------------------------------------------------------------|------------------------------------------------------------|------------------------------------------------------------|--------------------5----------------IT FEELS LIKE...-------|--------------------5---------------------------------------|--2--2--2--3--3--3--5---------------------------------------|
________ |Part 4|
------------------------------------------------------------|------------------------------------------------------------|------------------------------------------------------------|------------------------------------------------------------|--2-----2-----2h3--------2-----2-----2h3-3------------------|--2--0--2--0--2h3--0--0--2--0--2--0--2h3-3------------------|
------------------------------------------------------------|------------------------------------------------------------|------------------------------------------------------------|------------------------------------------------------------|--2-----2-----2h3-----------5--5--3--6--6--3--6-------------|--2--0--2--0--2h3--0--0--0--5--5--3--6--6--3--6-------------|
Tap to rate this tab
 
# A B C D E F G H I J K L M N O P Q R S T U V W X Y Z