Necrophagist - Advanced Corpse Tumor tab

=============================================================================
Artist - Necrophagist
Song - Advanced Corpse Tumour
Album - Onset Of Putrification
Transcribed by - Conor Curtis fattony121234@aol.com

=============================================================================


Gtr I (D G C F A D) - 'Left Speaker'
Gtr II (D G C F A D) - 'Right Speaker'
Gtr III (D G C F A D) - 'Lead Guitar'

Q=240 4/4 Gtr I PM-----------------------------------||-------------|-----------------|-------------------||-------------|-----------------|-----------8h11S14-||-------------|-----------------|-------6-9---------||-3--2--6--5--|---------------5-|---5-6-------------||-1--4--8--7--|---7-----1-4-3---|-1-----------------||----0--------|-4---3-1---------|-------------------|
|
| Gtr II| PM-------------------------------------||-------------|-----------------|-------------------||-------------|-----------------|--------------8h11-||-------------|-----------------|-------6-9-9-------||-3--2--6--5--|---------------5-|---5-6-------------||-1--4--8--7--|---7-----1-4-5---|-1-----------------||----0--------|-4---3-1---------|-------------------|
4/4 3/4 PM------| PM----| PM| PM------------||-----------------|-----------------|-------------||-----------------|-----------------|-------------||-----------------|-----------------|-------------||-----------5-----|---6-5-2---6-----|-----------5-||-------------4-3-|-1-------4-------|-------3-4---||-6-0-5-3-3-------|-------------4-0-|-3-1-3-------|
|
| PM----| PM----| PM| PM------------||-----------------|-----------------|-------------||-----------------|-------2---5-----|-------------||-----------------|---------3-------|-------------||-----------5-----|---3-2-----------|-----------5-||-------------4-3-|-1---------------|-------3-4---||-6-0-5-3-3-------|-------------4-0-|-3-1-3-------|
4/4 PM------| PM| T T|-----------------|---------------------------||-----------------|---------------------------||-----------------|-0h6h9-12p9p6-0h6h9-12p9p6-||-----------5-----|---------------------------||-------------4-3-|---------------------------||-6-0-5-3-3-------|---------------------------|
|
| PM------| PM| T T|-----------------|-0h6h9-12p9p6-0h6h9-12p9p6-||-----------------|---------------------------||-----------------|---------------------------||-----------5-----|---------------------------||-------------4-3-|---------------------------||-6-0-5-3-3-------|---------------------------|
3/4 4/4 PM-------------------------------||----------|-------------------------||----------|-------------------------||----------|-------------------------||-2--6--5--|-------------------------||-4--8--7--|-------------------------||----------|-0-0-0-0-0-0-0-0-0-0-0-0-|
|
| PM-------------------------------||----------|-------------------------||----------|-------------------------||----------|-------------------------||-2--6--5--|-------------------------||-4--8--7--|-------------------------||----------|-0-0-0-0-0-0-0-0-0-0-0-0-|
11/8 PM----| PM-------------------------||--------------------|--------------------------------||--------------------|--------------------------------||--5-----------5--4--|--------------------------------||--6-----------6--5--|--------------------------5--6--||--8-----------8--7--|---------------------4--7-------||-----0-0-0-0--------|-4-4-4-0-0-0-1-1-1-0------------|
|
| PM----| PM-------------------------||--------------------|--------------------------------||--9-----------9--8--|--------------------------------||-10----------10--9--|--------------------------------||-10----------10--9--|--------------------------8-10--||--------------------|---------------------7-10-------||-----0-0-0-0--------|-4-4-4-0-0-0-1-1-1-0------------|
4/4 PM--------------------| PM--| PM--|-------------------------|----------------||-------------------------|----------------||-------------------------|----------------||-------------------------|----------------||-------------------------|-8--4-4-4-8--7--||-6-6-6-0-0-0-2-2-2-0-0-0-|-6--------------|
|
| PM--------------------| PM--| PM--|-------------------------|----------------||-------------------------|----------------||-------------------------|----------------||-------------------------|-3--2-2-2-6--2--||-------------------------|-1--------------||-6-6-6-0-0-0-2-2-2-0-0-0-|----------------|
-----------------------| PM----||-------------------------|---------------||-------------------------|---------------||-------------------------|---------------||-------------------------|----2--6--5----||-------------7-7-7-7-7-7-|-8--4--8--7----||-0-0-0-0-0-0-------------|-6-------------|
|
|-----------------------| PM----||-------------------------|---------------||-------------------------|---------------||-------------------------|---------------||-------------------------|----2--6--5----||-------------7-7-7-7-7-7-|-8--4--8--7----||-0-0-0-0-0-0-------------|-6-------------|
4/4 Gtr I PM--||-----------------|-----------------|-----------||-----------------|-----8-----------|-----------||-----------------|-----------9-----|------5----||---------------5-|-2S5---5-----8---|------6----||-----------3-4---|---------7-------|------8----||-4-0-3-1-3-------|---------------0-|-0---------|
|
| Gtr II| PM--||-----------------|-----------------|-----------||-----------------|-----------------|-----------||-----------------|-----9-----6-----|------5----||---------------5-|-------------5---|------6----||-----------3-4---|-4S7---7-------4-|-4---------||-4-0-3-1-3-------|---------9-----0-|-0---------|
3/4 T PM---| T T|-----------------|--------------------|--------------------||-----------------|---------5h=8-11--8p|==5--------5h=8-14--||-0h6h9-12p9p6----|--------------------|----6---------------||-----------------|----5h8-------------|------5h8-----------||--------------4--|-3------------------|--------------------||--------------1--|-0------------------|--------------------|
|
| T PM---||-0h6h9-12p9p6----|--------------------|----------------12--||-----------------|-----------11h14p11-|-------------11-----||-----------------|----0h9h12----------|-12p9-0h9h12--------||--------------6--|-5------------------|--------------------||--------------8--|-7------------------|--------------------||-----------------|--------------------|--------------------|
4/4|-------------------------|-------------------------||-------------------------|-------------------------||-------------------------|-------------------------||-------------------------|-----------------------2-||-------------------------|-------------------3h4---||-1-1-1-1-1-1-1-1-1-0-0-0-|-1-1-1-3-3-3-0-1-3-------|
|
|-------------------------|-------------------------||-------------------------|-------------------------||-------------------------|-------------------------||-------------------------|-----------------------2-||-------------------------|-------------------3h4---||-1-1-1-1-1-1-1-1-1-0-0-0-|-1-1-1-3-3-3-0-1-3-------|
6/8|----------------------|-------------||----------------------|-------------||----------------------|-----------6-||----------------------|-------3-5---||----------------------|---4-7-------||-1-1-1-3-3-3-0-0-0-4--|-4-----------|
|
|----------------------|-------------||-------------------5--|-------------||----------------------|-----------9-||----------------------|-------6-8---||----------------------|-7-4-8-------||-1-1-1-3-3-3-0-0-0----|-------------|
4/4|-------------------------|-------------------------||-------------------------|-------------------------||-------------------------|-------------------------||-------------------------|-----------------------2-||-------------------------|-------3-3-3-------3h4---||-1-1-1-1-1-1-1-1-1-0-0-0-|-1-1-1-------0-1-3-------|
|
|-------------------------|-------------------------||-------------------------|-------------------------||-------------------------|-------------------------||-------------------------|-------2-2-2-----------2-||-------------------------|-------------------3h4---||-1-1-1-1-1-1-1-1-1-0-0-0-|-1-1-1-------0-1-3-------|
3/4 T|----------------------|----------------------------||----------------------|----------------------------||----------------------|-0h6h=9-12p=9p6--9b9.5r=0---||----------------------|----------------------------||----------------------|----------------------------||-3-3-3-0-0-0-1-1-1-4--|----------------------------|
|
|----------------------|----------------------------||-------------------5--|----------------------------||----------------------|-0-9-12-15-12-9-12b12.5r0---||----------------------|----------------------------||----------------------|----------------------------||-3-3-3-0-0-0-1-1-1----|----------------------------|
4/4|-------------------------|-------------------------||-------------------------|-------------------------||-------------------------|-------------------------||-------------------------|-----------------------2-||-------------------------|-------------------3h4---||-1-1-1-1-1-1-1-1-1-0-0-0-|-1-1-1-3-3-3-0-1-3-------|
|
|-------------------------|-------------------------||-------------------------|-------------------------||-------------------------|-------------------------||-------------------------|-----------------------2-||-------------------------|-------------------3h4---||-1-1-1-1-1-1-1-1-1-0-0-0-|-1-1-1-3-3-3-0-1-3-------|
6/8|----------------------|-------------||----------------------|-------------||----------------------|-----------6-||----------------------|-------3-5---||----------------------|---4-7-------||-1-1-1-3-3-3-0-0-0-4--|-4-----------|
|
|----------------------|-------------||-------------------5--|-------------||----------------------|-----------9-||----------------------|-------6-8---||----------------------|-7-4-8-------||-1-1-1-3-3-3-0-0-0----|-------------|
4/4|-------------------------|-------------------------|-----------------------||-------------------------|-------------------------|-----------------------||-------------------------|-------------------------|-----------------------||-------------------------|-----------------------2-|-----------------------||-------------------------|-------3-3-3-------3h4---|-----------------------||-1-1-1-1-1-1-1-1-1-0-0-0-|-1-1-1-------0-1-3-------|-3-3-3-0-0-0-1-1-1-4---|
|
|-------------------------|-------------------------|-----------------------||-------------------------|-------------------------|-------------------5---||-------------------------|-------------------------|-----------------------||-------------------------|-------2-2-2-----------2-|-----------------------||-------------------------|-------------------3h4---|-----------------------||-1-1-1-1-1-1-1-1-1-0-0-0-|-1-1-1-------0-1-3-------|-3-3-3-0-0-0-1-1-1-----|
3/4 4/4 T|-------------||------------------|----------------------|-----------------||-------------||o-----------------|----------------------|-----------------||-------------||------------------|----------------------|-----------------||---6p5-----5-||--------4-------4-|---5------------------|-------6---5-----||-0-----3-4---||o-2-1-4---2-1-4---|-3---4-3--------------|-------------4-3-||-------------||--0-------0-------|-0-------0h6h9-12p9p6-|-3-4-6---3-------|
|
| T|-------------||------------------|----------------------|-----------------||-----------5-||o-----------------|---------0h2h5--8p5p2-|-----------------||-------6-3---||------------------|----------------------|-----------------||---3p2-------||--------4-------4-|---5------------------|-----------5-----||-0-----------||o-2-1-4---2-1-4---|-3---4-3--------------|-------3-----4-3-||-------------||--0-------0-------|-0--------------------|-1-3-4---3-------|
3/4 4/4 T|----------|-----------------|----------------------|-----------------||----------|-----------------|----------------------|-----------------||----------|-----------------|----------------------|-----------------||-2--6--5--|-------4-------4-|---5------------------|---6-------5-----||-4--8--7--|-2-1-4---2-1-4---|-3---4-3--------------|-------------4-3-||-0--------|-0-------0-------|-0-------0h6h9-12p9p6-|-4---6-4-3-------|
|
| T|----------|-----------------|----------------------|-----------------||----------|-----------------|---------0h2h5--8p5p2-|-----------------||----------|-----------------|----------------------|-----------------||-2--6--5--|-------4-------4-|---5------------------|---3-5-2---5-----||-4--8--7--|-2-1-4---2-1-4---|-3---4-3--------------|-------------4-3-||-0--------|-0-------0-------|-0--------------------|-1-------3-------|
3/4 2/4 4/4 T T T|----------|-----------|---------------------|---------------------||----------|-----------|---------------------|---------------------||----------|-----------|---------------------|-----------0h6h9-12--||-2--6--5--|-----------|---------------------|---------------------||-4--8--7--|-----------|-11-7-10-8-----------|-4-5--7--8-----------||-0--------|-0h6h9-12--|-----------0h6h9-12--|---------------------|
|
| T T T|----------|-----------|---------------------|---------------------||----------|-----------|---------------------|---------------------||----------|-----------|---------------------|-----------0h6h9-12--||-2--6--5--|-----------|---------------------|---------------------||-4--8--7--|-----------|-11-7-10-8-----------|-7-8-10-11-----------||-0--------|-0h6h9-12--|-----------0h6h9-12--|---------------------|
3/4 4/4 3/4|---------------|----------------|--------------------|-------------------||---------------|---2-[5]-[6]----|---------[5]-[6]----|---------[6]S=[9]--||---------------|-3--------------|-1---0--------------|-------------------||-2---------2-5-|-------------3--|---2---3---------2--|-6-----------------||-4--4----------|-------------1--|-----------------4--|---5-7-8-----------||----1--0-0-----|-------------1--|-----------------0--|-------------------|
|
|---------------|----------------|--------------------|-------------------||---------------|---2-[5]-[6]----|---------[5]-[6]----|---------[9]S[12]--||---------------|-3--------------|-1---0--------------|-------------------||-2-----------5-|-------------3--|---2---3---------2--|-2-3-5-6-----------||-4--4----1-----|-------------1--|-----------------4--|-------------------||----1--0---0---|-------------1--|-----------------0--|-------------------|
1. 3/4 3/4|----------|-------------|-6------------|||----------|-----------5-|---5---6-5---o|||----------|---------6---|-----3-----3--|||-2--5--2--|-----5-8-----|--------------|||-4--7--4--|-------------|-------------o|||-0--------|-0-0---------|--------------||
|
|----------|-------------|--------------|||----------|-------------|-8-----------o|||----------|-----------6-|---6---6-6----|||-2--5--2--|---------5---|-----5-----5--|||-4--7--4--|-----4-7-----|-------------o|||-0--------|-0-6---------|--------------||
2. 4/4 T T T T T|---------------------------|-----------------------|-----------------------||---------------------------|-----------------------|-----------------------||--------------0h6h9-12p9p6-|-----------------0h6h9-|-12p9p6----------------||---------------------------|--------------2--------|-----------------------||---------------------------|--------------4--------|---------------------4-||-0h6h9-12p9p6--------------|-0h6h9-12p9p6----------|--------0h6h9-12p9p6-0-|
|
| T T|---------------------------|-----------------0h6h9-|-12p9p6----------------||---------------------------|-----------------------|-----------------------||---------------------------|-----------------------|--------0h6h9-12p9p6---||---------------------------|-----------------------|---------------------6-||---------------------------|--------------4--------|---------------------8-||---------------------------|--------------0--------|-----------------------|
~ T T T|-------------|---------------------------|-----------------------||-------------|---------------------------|-----------------------||-------------|--------------0h6h9-12p9p6-|-0h6h9-12p9p6----0h6h9-||-------------|---------------------------|--------------2--------||-3--3--4--4--|---------------------------|--------------4--------||-0--0--0-----|-0h6h9-12p9p6--------------|-----------------------|
|
| ~ T T T|-------------|---------------------------|-0h6h9-12p9p6----0h6h9-||-------------|---------------------------|-----------------------||----------6--|-0h6h9-12p9p6-0h6h9-12p9p6-|-----------------------||-5--5--6--5--|---------------------------|-----------------------||-7--7--8-----|---------------------------|--------------4--------||-------------|---------------------------|--------------0--------|
T T ~|------------------------|-------------||------------------------|-------------||-12p9p6-----------------|-------------||------------------------|-------------||---------------------4--|-3--3--4--4--||--------0h6h9-12p9p6-0--|-0--0--0-----|
|
| T T ~|-12p9p6-----------------|-------------||------------------------|-------------||--------0h6h9-12p9p6----|----------6--||---------------------6--|-5--5--6--5--||---------------------8--|-7--7--8-----||------------------------|-------------|
T T T|---------------------------|-----------------------||---------------------------|-----------------------||--------------0h6h9-12p9p6-|-----------------0h6h9-||---------------------------|--------------2--------||---------------------------|--------------4--------||-0h6h9-12p9p6--------------|-0h6h9-12p9p6----------|
|
| T T T|--------------0h6h9-12p9p6-|-----------------0h6h9-||---------------------------|-----------------------||-0h6h9-12p9p6--------------|-0h6h9-12p9p6----------||---------------------------|-----------------------||---------------------------|--------------4--------||---------------------------|--------------0--------|
T T ~|------------------------|-------------||------------------------|-------------||-12p9p6-----------------|-------------||------------------------|-------------||---------------------4--|-3--3--4--4--||--------0h6h9-12p9p6-0--|-0--0--0-----|
|
| T T ~|-12p9p6-----------------|-------------||------------------------|-------------||--------0h6h9-12p9p6----|----------6--||---------------------6--|-5--5--6--5--||---------------------8--|-7--7--8-----||------------------------|-------------|
T T T|---------------------------|-----------------------||---------------------------|-----------------------||-0h6h9-12p9p6--------------|-0h6h9-12p9p6----0h6h9-||---------------------------|--------------2--------||---------------------------|--------------4--------||--------------0h6h9-12p9p6-|-----------------------|
|
| T T T|---------------------------|-0h6h9-12p9p6----0h6h9-||---------------------------|-----------------------||-0h6h9-12p9p6-0h6h9-12p9p6-|-----------------------||---------------------------|-----------------------||---------------------------|--------------4--------||---------------------------|--------------0--------|
T T ~|------------------------|-------------||------------------------|-------------||-12p9p6-----------------|-------------||------------------------|-------------||---------------------4--|-3--3--4--4--||--------0h6h9-12p9p6-0--|-0--0--0-----|
|
| T T ~|-12p9p6-----------------|-------------||------------------------|-------------||--------0h6h9-12p9p6----|----------6--||---------------------6--|-5--5--6--5--||---------------------8--|-7--7--8-----||------------------------|-------------|
3/4 T T|------------------------|-----------------||------------------------|-----------------||------------------------|----0h6h9-12p9p6-||------------------------|-----------------||---------------7--------|-4---------------||-0h6h9-12p9p6----4-6--0-|-----------------|
|
| T T|--------------12--------|----0h6h9-12p9p6-||-----------------9-9-11-|-----------------||-0h6h9-12p9p6-----------|-9---------------||------------------------|-----------------||------------------------|-----------------||------------------------|-----------------|
||--------------|-------------|---------------|-------------3--||-6---------|||o-------------|-------------|---------------|--------2-5----o||---5---6-5-|||--------------|-------------|---------------|-----3----------||-----3-----|||--------------|-------------|-[9]-----------|-2-5------------||-----------|||o-----7-4-7-8-|-----7-4-7-8-|-----4-7-4-7-8-|---------------o||-----------|||--0-6---------|-0-6---------|---------------|----------------||-----------|
||--------------|-------------|---------------|----------------||-----------|||o-------------|-------------|---------------|---------------o||-8---------|||--------------|-------------|-[4]S5---------|----------------||---6---6-6-|||--------------|-------------|---------------|----------8-11--||-----5-----|||o-----7-4-7-8-|-----7-4-7-8-|-----------7-8-|-----7-10------o||-----------|||--0-6---------|-0-6---------|-------0-6-----|-6-9------------||-----------|
4/4 ~|-----------------|----------------------|----------------------|-----------||-----------------|----------------------|----------------------|-----------||-----------------|-------------[7]h=[8]-|----------------------|-----------||-----------------|----------------------|-[9]h[10]-------------|-2--------3||-----7-8---1-3-4-|-----7-8-7-8----------|----------7-4-7-8-3-4-|-4--1--2---||-0-6-----0-------|-0-6------------------|----------------------|-------0---|
|
| PM----| ~|-----------------|----------------------|----------------------|-----------||-----------------|----------------------|----------------------|-----------||-----------------|----------------------|----------------------|-----------||-----------------|-------------[9]h[10]-|-[9]h[10]-------------|-2--------3||-----7-8---1-3-4-|-----7-8-7-8----------|----------7-4-7-8-3-4-|-4--4--2---||-0-6-----0-------|-0-6------------------|----------------------|----0--0---|
PM----| ~|-----------------|----------------------|----------------------|-----------||-----------------|----------------------|----------------------|-----------||-----------------|-------------[7]h=[8]-|----------------------|----------5||-----------------|----------------------|-[9]h[10]-------------|-2--------3||-----7-8---1-3-4-|-----7-8-7-8----------|----------7-4-7-8-3-4-|-4--4--2--3||-0-6-----0-------|-0-6------------------|----------------------|----0--0---|
|
| PM----| ~|-----------------|----------------------|----------------------|-----------||-----------------|----------------------|----------------------|-----------||-----------------|----------------------|----------------------|-----------||-----------------|-------------[9]h[10]-|-[9]h[10]-------------|-2--------3||-----7-8---1-3-4-|-----7-8-7-8----------|----------7-4-7-8-3-4-|-4--4--2---||-0-6-----0-------|-0-6------------------|----------------------|----0--0---|
11/8 PM--------------------| PM----| PM-------------------------||-------------------------|--------------------|----------------------------||-------------------------|--------------------|----------------------------||-------------------------|--5-----------5--4--|----------------------------||-------------------------|--6-----------6--5--|--------------------------5-||-------------------------|--8-----------8--7--|---------------------4--7---||-0-0-0-0-0-0-0-0-0-0-0-0-|-----0-0-0-0--------|-4-4-4-0-0-0-1-1-1-0--------|
|
| PM--------------------| PM----| PM-------------------------||-------------------------|--------------------|----------------------------||-------------------------|--9-----------9--8--|----------------------------||-------------------------|-10----------10--9--|----------------------------||-------------------------|-10----------10--9--|--------------------------8-||-------------------------|--------------------|---------------------7-10---||-0-0-0-0-0-0-0-0-0-0-0-0-|-----0-0-0-0--------|-4-4-4-0-0-0-1-1-1-0--------|
4/4 PM--------------------| PM--| PM--|-------------------------|----------------||-------------------------|----------------||-------------------------|----------------||-------------------------|----------------||-------------------------|-8--4-4-4-8--7--||-6-6-6-0-0-0-2-2-2-0-0-0-|-6--------------|
|
| PM--------------------| PM--| PM--|-------------------------|----------------||-------------------------|----------------||-------------------------|----------------||-------------------------|-3--2-2-2-6--2--||-------------------------|-1--------------||-6-6-6-0-0-0-2-2-2-0-0-0-|----------------|
-----------------------| PM----||-------------------------|---------------||-------------------------|---------------||-------------------------|---------------||-------------------------|----2--6--5----||-------------7-7-7-7-7-7-|-8--4--8--7----||-0-0-0-0-0-0-------------|-6-------------|
|
|-----------------------| PM----||-------------------------|---------------||-------------------------|---------------||-------------------------|---------------||-------------------------|----2--6--5----||-------------7-7-7-7-7-7-|-8--4--8--7----||-0-0-0-0-0-0-------------|-6-------------|
4/4 3/4 4/4 Gtr I PM--| T PM---||-----------------|-----------------|-----------|-----------------|--------||-----------------|-----8-----------|-----------|-----------------|--------||-----------------|-----------9-----|------5----|-0h6h9-12p9p6----|--------||---------------5-|-2S5---5-----8---|------6----|-----------------|--------||-----------3-4---|---------7-------|------8----|--------------4--|-3------||-4-0-3-1-3-------|---------------0-|-0---------|--------------1--|-0------|
|
| Gtr II| PM--| T PM---||-----------------|-----------------|-----------|-0h6h9-12p9p6----|--------||-----------------|-----------------|-----------|-----------------|--------||-----------------|-----9-----6-----|------5----|-----------------|--------||---------------5-|-------------5---|------6----|--------------6--|-5------||-----------3-4---|-4S7---7-------4-|-4---------|--------------8--|-7------||-4-0-3-1-3-------|---------9-----0-|-0---------|-----------------|--------|
~|-----------------|----------------------|-----------------------|----------||-----------------|----------------------|-----------------------|----------||-----------------|----------------------|-----------------------|----------||-----------------|-------------[9]h[10]-|-----------------------|-2--------||-----7-8---1-3-4-|-----7-8-7-8----------|-[11]h[12]-7-4-7-8-3-4-|-4--1--2--||-0-6-----0-------|-0-6------------------|-----------------------|-------0--|
|
| PM----| ~|-----------------|----------------------|---------------------|----------||-----------------|----------------------|---------------------|----------||-----------------|----------------------|---------------------|----------||-----------------|-------------[9]h[10]-|[9]h[10]-------------|-2-----3--||-----7-8---1-3-4-|-----7-8-7-8----------|---------7-4-7-8-3-4-|-4--4--2--||-0-6-----0-------|-0-6------------------|---------------------|----0--0--|
PM----| ~|-----------------|--------------------|-----------------------|-----------||-----------------|--------------------|-----------------------|-----------||-----------------|--------------------|-----------------------|-------5---||-----------------|------------[9]h[10]|-----------------------|-2-----3---||-----7-8---1-3-4-|----7-8-7-8---------|-[11]h[12]-7-4-7-8-3-4-|-4--4--2-3-||-0-6-----0-------|0-6-----------------|-----------------------|----0--0---|
|
| PM----| ~|-----------------|----------------------|---------------------|----------||-----------------|----------------------|---------------------|----------||-----------------|----------------------|---------------------|----------||-----------------|-------------[9]h[10]-|[9]h[10]-------------|-2-----3--||-----7-8---1-3-4-|-----7-8-7-8----------|---------7-4-7-8-3-4-|-4--4--2--||-0-6-----0-------|-0-6------------------|---------------------|----0--0--|
Q=230 4/4 Gtr III|----------|------------|----------(5)S=17-||----------|------------|------------------||----------|------------|------------------||----------|------------|------------------||----------|------------|------------------||----------|------------|------------------|
|
| Gtr I|----------|------------|------------------||----------|------------|------------------||----------|------------|------------------||----------|------------|------------------||-2--------|-(2)--------|-(2)----5---------||-0--------|-(0)--------|-(0)----3---------|
|
| Gtr II|----------|------------|------------------||----------|------------|------------------||----------|------------|------------------||----------|------------|------------------||-2--------|-(2)--------|-(2)----5---------||-0--------|-(0)--------|-(0)----3---------|
4/4 Gtr III|-19----------------------------------|-19------------22p19--------||----19----------------------------19-|-----19--------------19-----||-------19----------------------19----|--------19------------------||----------21p16----------16h21-------|-----------21-----------21--||----------------17----17-------------|----------------------------||-------------------19----------------|----------------------------|
|
| Gtrs I, II|-------------------------------------|----------------------------||-------------------------------------|----------------------------||-------------------------------------|----------------------------||-------------------------------------|----------------------------||--4----------------------------------|-(4)---------------------5--||--2----------------------------------|-(2)---------------------3--|
|----------------|------------------------|----------------------||-----------/20--|-19--20-17-20----20-----|----------------------||----------------|--------------19----18--|-(18)------16h18h19---||-(21)-----------|------------------------|----------------------||----------------|------------------------|----------------------||----------------|------------------------|----------------------|
|
|----------------|------------------------|----------------------||----------------|------------------------|----------------------||----------------|------------------------|----------------------||----------------|------------------------|----------------------||--(5)-----------|-(5)-----------------4--|--(4)-----------------||--(3)-----------|-(3)-----------------2--|--(2)-----------------|
|-----------19---------------------|---------------||-17--19-20----20-19-17-19-20-19---|---------------||----------------------------------|---------------||----------------------------------|---------------||----------------------------------|---------------||----------------------------------|---------------|
|
| Gtr I| PM|----------------------------------|---------------||----------------------------------|---------------||-----------------------------[3]--|---------------||----------------------------------|-------------4-||-(4)-----------------4------------|-------2-------||-(2)-----------------2------------|---0-2---0-2---|
|
| Gtr II| PM|----------------------------------|---------------||----------------------------------|---------------||-----------------------------[3]--|---------------||----------------------------------|---------------||-(4)-----------------4------------|---------------||-(2)-----------------2------------|---------------|
|----------19-------|-----------------------19h22p19------19-||-------------19----|--------------------19----------19------||----------------19-|-----------------19---------------------||-------------------|-16-----------16------------------------||-------------------|-----17----17---------------------------||-------------------|--------19------------------------------|
|
|-------------------|----------------------------------------||-------------------|----------------------------------------||-------------------|----------------------------------------||---4-4-------------|-(4)------------------------------------||-2---2-------------|-(2)------------------------------------||-----2-------------|-(2)--------------------------0----2----|
|
|-------------------|----------------------------------------||-------------------|----------------------------------------||-------------------|----------------------------------------||-----4-------------|-(4)------------------------------------||-----2-------------|-(2)------------------------------------||-----2-------------|-(2)--------------------------0----2----|
Gtr III|-------------------19-------------|-----19-17-19----19----19-||-19-------------------19----------|-17-----------20----19----||----19---16-(16)---------19p16S19-|--------------------------||----------------------------------|--------------------------||----------------------------------|--------------------------||----------------------------------|--------------------------|
|
| Gtrs I, II|----------------------------------|--------------------------||----------------------------------|--------------------------||----------------------------------|--------------------------||--------------4-------------------|--------------------------||--2--------------2--5-------------|-(5)-----------------2----||-------0------------3-------------|-(3)-----------0--2-----0-|
|----19----19-------|----------------19---------------||-17----15----14----|-(14)--------19----19------------||-------------------|-------16h19----------19p==16h19-||-------------------|---------------------------------||-------------------|---------------------------------||-------------------|---------------------------------|
|
|-------------------|---------------------------------||-------------------|---------------------------------||-------------------|---------------------------------||-----4-----4-------|---------------------------------||--------2-----4----|--(4)----------------------------||--2-----------2----|--(2)---3----------------0-------|
Gtr III T|-15tr19----------------14h19p==14-22p19---14h||---------------------------------------------||---------------------------------------------||---------------------------------------------||---------------------------------------------||---------------------------------------------|
|
| Gtr I|---------------------------------------------||---------------------------------------------||---------------------------------------------||---------------------------------------------||-----------------------------------2---------||-[2]-----([2])b4r([2])--0----2----------0----|
|
| Gtr II|---------------------------------------------||---------------------------------------------||---------------------------------------------||---------------------------------------------||-[4]-----([4])b6r([4])-------------2---------||------------------------0----2----------0----|
T T PM------------------||-19p14h==19-22p19---14h19p14h19-22p19p14-|---------------------------------||-----------------------------------------|-15--------------17-19-20-19-17--||-----------------------------------------|--------16-18-19-----------------||-----------------------------------------|---------------------------------||-----------------------------------------|---------------------------------||-----------------------------------------|---------------------------------|
|
|-----------------------------------------|---------------------------------||-----------------------------------------|---------------------------------||-----------------------------------------|---------------------------------||-------4----------4-----4----------------|-(4)-----------------------------||-------------2----------2----------------|-(2)-----------------------------||--2---------------------2----------------|-(2)-----------------0-----2-----|
|
|-----------------------------------------|---------------------------------||-----------------------------------------|---------------------------------||-----------------------------------------|---------------------------------||-------4----------4-----4----------------|-(4)-----------------------------||-------------2----------2----------------|-(2)-----------------------------||--2---------------------2----------------|-(2)-----------------0-----2-----|
Gtr III PM---||-----------------------------------|--------19-17-19----||-----------------------------------|-----------------20-||-19-18-16-15-16-18-16-15-16-18-----|-19-----------------||-------------------------------17--|--------------------||-----------------------------------|--------------------||-----------------------------------|--------------------|
|
| Gtrs I, II|-----------------------------------|--------------------||-----------------------------------|--------------------||-----------------------------------|--------------------||--------------4--------------------|--------------------||--2-----------------2-----5--------|-(5)-----------2----||--------0-----------------3--------|-(3)-----0--2-----0-|
|-19----19---------------||----19----17-14--(14)\--||------------------------||------------------------||------------------------||------------------------|
|
|------------------------||------------------------||------------------------||-----4-----4------------||--------2-----4---------||--2-----------2---------|
PM PM---------------------------------------||------------------------------------------18------------||---------------17-19-17----------17-19-20----20-19-17---||-/16--17-18-19----------19-18-19------------------------||--------------------------------------------------------||--------------------------------------------------------||--------------------------------------------------------|
|
|--------------------------------------------------------||--------------------------------------------------------||--------------------------------------------------------||--------------------------------------------------------||--(4)---------------------------------------------------||--(2)-----------3--------------------------0------------|
Gtr III PM---------------------------------------------------||--------18------------------------------------------------||-19--20----20--19-----17--19---15-19-17-15----15-17-19-15-||-------------------------------------------18-------------||----------------------------------------------------------||----------------------------------------------------------||----------------------------------------------------------|
|
| Gtr I|----------------------------------------------------------||----------------------------------------------------------||----------------------------------------------------------||----------------------------------------------------------||-----------------------------------------------2----------||-[2]----------([2])b4r===([2])-----0-----2-----------0----|
|
| Gtr II|----------------------------------------------------------||----------------------------------------------------------||----------------------------------------------------------||----------------------------------------------------------||-[4]----------([4])b6r===([4])-----------------2----------||-----------------------------------0-----2-----------0----|
|-------22------(22)\--||----19----------------||-16-------------------||----------------------||----------------------||----------------------|
|
|----------------------||----------------------||----------------------||-----4----4-4---------||--------2---2---------||--2---------2---------|
|
|----------------------||----------------------||----------------------||-----4----4-4---------||--------2---2---------||--2---------2---------|
Gtr III|-19--17-19-15-19-14-19----|--------------------||-----------------------17-|-15--14h15p14-------||--------------------------|--------------16----||--------------------------|--------------------||--------------------------|--------------------||--------------------------|--------------------|
|
| Gtrs I, II|--------------------------|--------------------||--------------------------|--------------------||--------------------------|--------------------||-(4)-----------------4----|--------------------||-(2)-----------2--------2-|--5-----------------||-(2)-----0--2-----0-------|--3-----------------|
|--------19--------------------19---------|---------------------------||-----------19--------------19----19------|-----------------------19--||-(16)-----------19p16h19--------------19p|=15--(15)--(15)--15h19-----||-----------------------------------------|---------------------------||-----------------------------------------|---------------------------||-----------------------------------------|---------------------------|
|
|-----------------------------------------|---------------------------||-----------------------------------------|---------------------------||-----------------------------------------|---------------------------||-------------------------4----------4----|---------------------------||---------2---------------------2---------|--4------------------------||---0--2-------0-----2--------------------|--2------------------------|
Gtr III|-18---(18)--(18)b19r=(18)--|-(18)--(18)b20r===(18)---||---------------------------|-------------------------||---------------------------|-------------------------||---------------------------|-------------------------||---------------------------|-------------------------||---------------------------|-------------------------|
|
| Gtr I|---------------------------|-------------------------||---------------------------|-------------------------||---------------------------|-------------------------||---------------------------|-------------------------||-(4)-----------------------|-------------------------||-(2)----3--------------0---|--[2]--([2])b4r===([2])--|
|
| Gtr II|---------------------------|-------------------------||---------------------------|-------------------------||---------------------------|-------------------------||---------------------------|-------------------------||-(4)-----------------------|--[4]--([4])b6r===([4])--||-(2)----3--------------0---|-------------------------|
7/4 ~~|-19--------------|-22b23r=====(22)----||-----------------|--------------------||-----------------|--------------------||-----------------|--------------------||-----------------|--------------------||-----------------|--------------------|
|
|-----------------|--------------------||-----------------|--------------------||-----------------|--------------------||--4--------------|--------------------||--2--------------|--5-----------------||--2--------------|--3-----------------|
|
|-----------------|--------------------||-----------------|--------------------||-----------------|--------------------||--4--------------|--------------------||--2--------------|--5-----------------||--2--------------|--3-----------------|
4/4 Gtr III|-14-15-18-15-14----------------------------------||----------------17-15-14-15-17-15-14----14-15-14-||-------------------------------------16----------||-------------------------------------------------||-------------------------------------------------||-------------------------------------------------|
|
| Gtrs I, II|-------------------------------------------------||-------------------------------------------------||-------------------------------------------------||-------------------------------------------------||--4----------------------------------------------||--2----------------------------------------------|
7/4|------------------------------------------------------------------19-------||---------------------------------------------19----------------19----19----||-16--15-------15----------------15-16-16--19----19p16----16h19----------19-||--------16-17----17-16-14-16-17-----------------------16-------------------||---------------------------------------------------------------------------||---------------------------------------------------------------------------|
|
|---------------------------------------------------------------------------||---------------------------------------------------------------------------||--------------------------------------[4]----------------------------------||---------------------------------------------------------------------------||-(4)-----------------------------------------------------------------------||-(2)-----------------------------------------------------------------------|
4/4|-19----------||-------------||-------------||-------------||-------------||-------------|
|
|-------------||-------------||-------------||--4----------||--2----------||--2------3-2-|
|-15-18-19-18-15----15-----------------------------||----------------19----19-17-19-17-15-14--15-------||--------------------------------------------16-15-||--------------------------------------------------||--------------------------------------------------||--------------------------------------------------|
|
|--------------------------------------------------||--------------------------------------------------||--------------------------------------------------||--------------------------------------------------||--------------------2----------------[2]----------||--0-----2-----3-----------3-----2-----------------|
|-------------------------------------------------||-14----------------------------------------------||----16-15----------------------------------------||----------17-16-14-16-17-16-14-------------------||-------------------------------17-16-14-13-14-16-||-------------------------------------------------|
|
|-------------------------------------------------||-------------------------------------------------||-------------------------------------------------||-------------------------------------------------||--5----------------------------------------------||--3-----------------------------------0-----3----|
Gtr III ~~~~~~~~~~|------------------------------------------|---------19-17----17-||----------------15-17-19-17--15----15-----|---------------20----||-------15-16-18-----------------19----16--|-(16)----------------||-16-17------------------------------------|---------------------||------------------------------------------|---------------------||------------------------------------------|---------------------|
|
| Gtr I|------------------------------------------|---------------------||------------------------------------------|---------------------||-------------------------[5]--------------|---------------------||--------5-----4-----5------------------4--|--(4)----------------||---------------------------------------2--|--(2)--------------2-||--0------------------------------------2--|--(2)-----0--2--3----|
|
| Gtr II|------------------------------------------|---------------------||------------------------------------------|---------------------||-------------------------[7]--------------|---------------------||--------5-----4-----5------------------4--|--(4)----------------||---------------------------------------2--|--(2)--------------2-||--0------------------------------------2--|--(2)-----0--2--3----|
|-------------------------------|--------------------------||-20-19-20--19-17b19r(17)-15-14-|-15--14-------19-17-19-15-||-------------------------------|--------16-15-------------||-------------------------------|--------------------------||-------------------------------|--------------------------||-------------------------------|--------------------------|
|
|-------------------------------|--------------------------||-------------------------------|--------------------------||-------------------------------|--------------------------||-------------------------------|------------------5--4--5-||-------[2]-----5---------------|-(5)----------------------||--3--2---------3---------------|-(3)-----0--3--0----------|
|
|-------------------------------|--------------------------||-------------------------------|--------------------------||-------------------------------|--------------------------||-------------------------------|------------------5--4--5-||-------[2]-----5---------------|-(5)----------------------||--3--2---------3---------------|-(3)-----0--3--0----------|
|--------------------19h21p19----19h|=22p19---------------------------------||-19-----19-------19----------19----|-------19------------19-17-------------||-----18----16b18-------------------|----------21------21---------16--------||-----------------------------------|-------------21-----------------17--17-||-----------------------------------|------------------------------------19-||-----------------------------------|---------------------------------------|
|-----------------------------------|---------------------------------------||-----------------------------------|---------------------------------------||-[5]-------------------------------|---------------------------------------||---------4-------------------------|---------------------------------------||---------2-------------------------|-----------------2---------------[2]---||---------2-------------------------|--0----2----3----------3----2----------|
|-----------------------------------|---------------------------------------||-----------------------------------|---------------------------------------||-[7]-------------------------------|---------------------------------------||---------4-------------------------|---------------------------------------||---------2-------------------------|-----------------2---------------[2]---||---------2-------------------------|--0----2----3----------3----2----------|
|----19h22p19----23p19----22p19------22b23r==||-20----------20-------20-------20-----------||--------------------------------------------||--------------------------------------------||--------------------------------------------||--------------------------------------------|
|
|--------------------------------------------||--------------------------------------------||--------------------------------------------||--------------------------------------------||--5-----------------------------------------||--3--------------------------0----3---------|
|
|--------------------------------------------||--------------------------------------------||--------------------------------------------||--------------------------------------------||--5-----------------------------------------||--3--------------------------0----3---------|
|-22-----------------18h19p18-|-----------------------18h==19p18---------||-----------------19----------|-19-----------------19------------19------||--------------19-------------|-----19----------19--------------------19p||----------21-----------------|--------21p20-21--------------------------||-----------------------------|------------------------------------------||-----------------------------|------------------------------------------|
|
|-----------------------------|------------------------------------------||-----------------------------|------------------------------------------||----------[5]----------------|------------------------------------------||----5-4-5------------4-------|-(4)--------------------------------------||---------------------2-------|-(2)---------------------------------2----||--0------------------2-------|-(2)-----------------0----2-----3---------|
|
|-----------------------------|------------------------------------------||-----------------------------|------------------------------------------||----------[7]----------------|------------------------------------------||----5-4-5------------4-------|-(4)--------------------------------------||---------------------2-------|-(2)---------------------------------2----||--0------------------2-------|-(2)-----------------0----2-----3---------|
|-------------------18----19-18----||----------------20----20-------20-||-16----------19-------------------||----------21----------------------||------22--------------------------||----------------------------------|
|
|----------------------------------||----------------------------------||----------------------------------||----------------------------------||------[2]--------5----------------||--3-2------------3----------------|
|
|----------------------------------||----------------------------------||----------------------------------||----------------------------------||------[2]--------5----------------||--3-2------------3----------------|
|-18---------------------------------------|-------------------------||-----20-19-20-19---17b19r(17)b20r==17b20r=|=(17)--17-19-15-19----19-||------------------------------------------|-------------------18----||------------------------------------------|-------------------------||------------------------------------------|-------------------------||------------------------------------------|-------------------------|
|
|------------------------------------------|-------------------------||------------------------------------------|-------------------------||-----------------------------------[5]----|-------------------------||-----------------5---------4-----5--------|-------------------------||-(5)--------------------------------------|---4---------------------||-(3)--------0-----------------------------|---2---------------------|
|
|------------------------------------------|-------------------------||------------------------------------------|-------------------------||-----------------------------------[7]----|-------------------------||-----------------5---------4-----5--------|-------------------------||-(5)--------------------------------------|---4---------------------||-(3)--------0-----------------------------|---2---------------------|
|---------------------------|---------------------------||-----19----19----19-19b20--|-19--20-17-20-15-20-15-20--||-16-----15-----------------|---------------------------||--------------16-----------|---------------------------||---------------------------|---------------------------||---------------------------|---------------------------|
|
|---------------------------|---------------------------||---------------------------|---------------------------||---------------------------|---------------------------||---------------------------|---------------------------||-(4)-----------------5-----|-(5)-----------------------||-(2)-----------------3-----|-(3)-----------------------|
|
|---------------------------|---------------------------||---------------------------|---------------------------||---------------------------|---------------------------||---------------------------|---------------------------||-(4)-----------------5-----|-(5)-----------------------||-(2)-----------------3-----|-(3)-----------------------|
~~~~~~~~~~~~~~~ ~~~|-----------------|---------19----------------|-19-------18-------|-----||-----20----------|------------19----------19-|----19-------------|-----||-18-----15-------|-(15)----------21----21----|-------21----------|-----||-----------------|------------------21-------|-------------------|-----||-----------------|---------------------------|-------------------|-----||-----------------|---------------------------|-------------------|-----|
|
|-----------------|---------------------------|-----------6-------|-----||-----------------|---------------------------|-------------------|-----||-----------------|---------------------------|-------------------|-----||-----------------|---------------------------|-------------------|-----||-(5)--------4----|--(4)----------------------|--4----------------|-----||-(3)--------2----|--(2)----------------------|--2----------------|-----|
|
|-----------------|---------------------------|-------------------|-----||-----------------|---------------------------|-------------------|-----||-----------------|---------------------------|-------------------|-----||-----------------|---------------------------|----------[8]------|-----||-(5)--------4----|--(4)----------------------|--4----------------|-----||-(3)--------2----|--(2)----------------------|--2----------------|-----|
Q=240 4/4 Gtr I|-----------------|----------------------||-----------------|----------------------||-----------------|----------------------||-----------------|-------------[9]h[10]-||-----7-8---1-3-4-|-----7-8-7-8----------||-0-6-----0-------|-0-6------------------|
|
| Gtr II|-----------------|----------------------||-----------------|----------------------||-----------------|----------------------||-----------------|-------------[9]h[10]-||-----7-8---1-3-4-|-----7-8-7-8----------||-0-6-----0-------|-0-6------------------|
~|-----------------------|--------------||-----------------------|--------------||-----------------------|--------------||-----------------------|-2--------3---||-[11]h[12]-7-4-7-8-3-4-|-4--1--2------||-----------------------|-------0------|
|
| PM----| ~|-----------------------|--------------||-----------------------|--------------||-----------------------|--------------||--[9]h[10]-------------|-2--------3---||-----------7-4-7-8-3-4-|-4--4--2------||-----------------------|----0--0------|
|-----------------|----------------------||-----------------|----------------------||-----------------|----------------------||-----------------|-------------[9]h[10]-||-----7-8---1-3-4-|-----7-8-7-8----------||-0-6-----0-------|-0-6------------------|
|
|-----------------|----------------------||-----------------|----------------------||-----------------|----------------------||-----------------|-------------[9]h[10]-||-----7-8---1-3-4-|-----7-8-7-8----------||-0-6-----0-------|-0-6------------------|
PM----| ~~~~~~~|-----------------------|-------------|------||-----------------------|-------------|------||-----------------------|----------5--|------||-----------------------|-2--------3--|-2----||-[11]h[12]-7-4-7-8-3-4-|-4--4--2--3--|-4----||-----------------------|----0--0-----|------|
|
| PM----| ~~~~~~~|-----------------------|-------------|------||-----------------------|-------------|------||-----------------------|-------------|------||--[9]h[10]-------------|-2--------3--|-5----||-----------7-4-7-8-3-4-|-4--4--2-----|-7----||-----------------------|----0--0-----|------|
4/4 Gtr I|-----------------|----------------------||-----------------|----------------------||-----------------|----------------------||-----------------|-------------[9]h[10]-||-----7-8---1-3-4-|-----7-8-7-8----------||-0-6-----0-------|-0-6------------------|
|
| Gtr II|-----------------|----------------------||-----------------|----------------------||-----------------|----------------------||-----------------|-------------[9]h[10]-||-----7-8---1-3-4-|-----7-8-7-8----------||-0-6-----0-------|-0-6------------------|
~|-----------------------|--------------||-----------------------|--------------||-----------------------|--------------||-----------------------|-2--------3---||-[11]h[12]-7-4-7-8-3-4-|-4--1--2------||-----------------------|-------0------|
|
| PM----| ~|-----------------------|--------------||-----------------------|--------------||-----------------------|--------------||--[9]h[10]-------------|-2--------3---||-----------7-4-7-8-3-4-|-4--4--2------||-----------------------|----0--0------|
|-----------------|----------------------||-----------------|----------------------||-----------------|----------------------||-----------------|-------------[9]h[10]-||-----7-8---1-3-4-|-----7-8-7-8----------||-0-6-----0-------|-0-6------------------|
|
|-----------------|----------------------||-----------------|----------------------||-----------------|----------------------||-----------------|-------------[9]h[10]-||-----7-8---1-3-4-|-----7-8-7-8----------||-0-6-----0-------|-0-6------------------|
PM----| ~~~~~~~|-----------------------|-------------|------||-----------------------|-------------|------||-----------------------|----------5--|------||-----------------------|-2--------3--|-2----||-[11]h[12]-7-4-7-8-3-4-|-4--4--2--3--|-4----||-----------------------|----0--0-----|------|
|
| PM----| ~~~~~~~|-----------------------|-------------|------||-----------------------|-------------|------||-----------------------|-------------|------||--[9]h[10]-------------|-2--------3--|-5----||-----------7-4-7-8-3-4-|-4--4--2-----|-7----||---------------
Tap to rate this tab
 
# A B C D E F G H I J K L M N O P Q R S T U V W X Y Z