Negrita - Greta tab

GRETA


Intro 2° chitarra (la 1° entra nel verso)

|-3-0-0---0------3-0-0---0-----3-0-0---0-----3-0-0---0-----------||-----------0--------------0-------------0-------------0---------||----------------------------------------------------------------||-------2-----2--------2-----2-------2-----2-------2-----2-------||----------------------------------------------------------------||----------------------------------------------------------------|
|-3-------3------3------3-------3-0-0---0-----3-0-0---0----------||---3-3-----3-3----3-3----3--3------------0-------------0--------||----------------------------------------------------------------||-------------------------------------2-----2-------2-----2------||----------------------------------------------------------------||----------------------------------------------------------------|
|-3-0-0---0------3-0-0---0---------------------------------------||-----------0--------------0-------------------------------------||----------------------------------------------------------------||-------2-----2--------2-----2-----------------------------------||----------------------------------------------------------------||----------------------------------------------------------------|
VERSO 1° chitarra
|------------10--12----14----------------------------------------||-------12----------------15----------12-------------------------||----12----------------------------12----------------------------||-14----------------------------14-------------------------------||----------------------------------------------------------------||----------------------------------------------------------------|
2° chitarra
|----------------------------------------------------------------||------3---------------------------------------------------------||--2/4---2/4---ripete-per-tutto-il-verso-------------------------||----------------------------------------------------------------||----------------------------------------------------------------||----------------------------------------------------------------|
RITORNELLO 1° chitarra
|-----------------------------------3----------------------------||------1---------3---------1----------3--------------------------||--------2---------0---------2-----------------------------------||----2---------2---------2--------2------------------------------||--0---------2---------0--------2--------------------------------||----------------------------------------------------------------|
2° chitarra
|-0---3------0---3-----------------------------------------------||-1---3------1---3------3-----------3-----------3-----------3----||-2---0------2---0--2/4---2/4---2/4---2/4---2/4---2/4---2/4—--2/4||-2---2------2---2-----------------------------------------------||-0---2------0---2-----------------------------------------------||-----0----------0-----------------------------------------------|
POST RITORNELLO 1° chitarra
|-10------10------10--12---14----10------------------------------||----12------12---------------------12-------12------------------||----------------------------------------12----------------------||----------------------------------------------------------------||----------------------------------------------------------------||----------------------------------------------------------------|
2° chitarra
|-3-------3------3------3-------3-0-0---0-----3-0-0---0----------||---3-3-----3-3----3-3----3--3------------0-------------0--------||----------------------------------------------------------------||-------------------------------------2-----2-------2-----2------||----------------------------------------------------------------||----------------------------------------------------------------|
|-3-0-0---0------3-0-0---0---------------------------------------||-----------0--------------0-------------------------------------||----------------------------------------------------------------||-------2-----2--------2-----2-----------------------------------||----------------------------------------------------------------||----------------------------------------------------------------|
VERSO 2
2° chitarra|----------------------------------------------------------------||-----------------------12--------------------------12-----------||-12----11-12----11-9---12----12----11-12----11-9---12-----------||-14----12-14----12-9---------14----12-14----12-9----------------||----------------------------------------------------------------||----------------------------------------------------------------|
1° chitarra (sono perlopiù feedback)
|--------------------------------------------10------------------||-----------------------------12--------------------12-----------||-----------------------12---------------------------------------||----------------------------------------------------------------||----------------------------------------------------------------||----------------------------------------------------------------|
OUTRO 1° e 2° chitarra credo che suonino la stessa parte
|----------------------------------------------------------------||----------------------------------------------------------------||----------------------------------------------------------------||-5-5-5-5-5-5-5-5-3-3-3-2-2-2-2-2-5-5-5-5-5-5-5-5-3-3-3-2-2-2-2-2||----------------------------------------------------------------||----------------------------------------------------------------|
|----------------------------------------------------------------||----------------------------------------------------------------||----------------------------------------------------------------||-5-5-5-5-5-5-5-5-/10-10-10-10-10-10-10-10-5-5-5-5-5-5-5-5-/9-9-9||----------------------------------------------------------------||----------------------------------------------------------------|
|----------------------------------------------------------------||----------------------------------------------------------------||----------------------------------------------------------------||-9-9-9-9-9-12-12-12-12-12-12-12-12-10-10-10-9-9-9-9-9-8-8-8-8-8-||----------------------------------------------------------------||----------------------------------------------------------------|
|----------------------------------------------------------------||----------------------------------------------------------------||----------------------------------------------------------------||-8-8-8-8-8-8-7-7-7-7-7-5-5-5-5-5-5-5-5-/10-10-10-10-10-10-10-10-||----------------------------------------------------------------||----------------------------------------------------------------|
|----------------------------------------------------------------||----------------------------------------------------------------||----------------------------------------------------------------||-5-5-5-5-5-5-5-5-/12-12-12-12-12-12-12-12-5-5-5-5-5-5-5-5-3-3-3-||----------------------------------------------------------------||----------------------------------------------------------------|
|----------------------------------------------------------------||----------------------------------------------------------------||----------------------------------------------------------------||-2-2-2-2-2-0-0-0-0-0-0-0-0-0-0-0-0-2-2-3-3-5-5-5-5-5-5-5-5-/10--||----------------------------------------------------------------||----------------------------------------------------------------|
|----------------------------------------------------------------||----------------------------------------------------------------||----------------------------------------------------------------||-10-10-10-10-10-10-10-5-5-5-5-5-5-5-5-/9-9-9-9-9-9-9-9-12-12-12-||----------------------------------------------------------------||----------------------------------------------------------------|
|----------------------------------------------------------------||----------------------------------------------------------------||----------------------------------------------------------------||-12-12-12-12-12-10-10-10-9-9-9-9-9-8-8-8-8-8-8-8-8-8-8-8-7-7-7-7||----------------------------------------------------------------||----------------------------------------------------------------|
|----------------------------------------------------------------||----------------------------------------------------------------||----------------------------------------------------------------||-7-5-5-5-5-5-5-5-5-/12-12-12-12-12-12-12-12-5-5-5-5-5-5-5-5-/12-||----------------------------------------------------------------||----------------------------------------------------------------|
|----------------------------------------------------------------||----------------------------------------------------------------||----------------------------------------------------------------||-12-12-12-12-12-12-12-------------------------------------------||----------------------------------------------------------------||----------------------------------------------------------------|
Tap to rate this tab
 
# A B C D E F G H I J K L M N O P Q R S T U V W X Y Z