Nemesea - Afterlife tab version 2

Song: Afterlife
Band: Nemesea
Album: The Quiet Resistance
Tuning: [EADGBe]




Intro[0:00-0:25]

-------------------------------|-------------------------------|-------------------------------|-4-4-4--4-4-4--4-4-4--7-7-7-7--|[x2]-2-2-2--2-2-2--2-2-2-----------|-2-2-2--2-2-2--2-2-2--5-5-5-5--|
-------------------------------|-------------------------------|-------------------------------|-5-5-5--5-5-5--5-5-5--7-7-7-7--|[x2]-5-5-5--5-5-5--5-5-5-----------|-3-3-3--3-3-3--3-3-3--5-5-5-5--|
Chorus[0:29-0:54]-------------------------------------------------|-------------------------------------------------|-------------------------------------------------|-4-4-4--4-4-4--4-4-4--4-4--7-7-7-7--7-7-7-7------|-2-2-2--2-2-2--2-2-2--2-2--5-5-5-5--7-7-7-7------|-2-2-2--2-2-2--2-2-2--2-2--5-5-5-5--5-5-5-5------|
-------------------------------------------------|-------------------------------------------------|-------------------------------------------------|-4-4-4--4-4-4--4-4-4--4-4--7-7-7-7--4-4-4-4------|-2-2-2--2-2-2--2-2-2--2-2--7-7-7-7--4-4-4-4------|-2-2-2--2-2-2--2-2-2--2-2--5-5-5-5--2-2-2-2------|
-------------------------------------------------|-------------------------------------------------|-------------------------------------------------|-4-4-4--4-4-4--4-4-4--4-4--7-7-7-7--7-7-7-7------|-2-2-2--2-2-2--2-2-2--2-2--5-5-5-5--7-7-7-7------|-2-2-2--2-2-2--2-2-2--2-2--5-5-5-5--5-5-5-5------|
-----------------------------------------|-----------------------------------------|-----------------------------------------|-5-5-5-5-5-5-5-5--7-7-7-7-7-7-7-7--------|-5-5-5-5-5-5-5-5--7-7-7-7-7-7-7-7--------|-3-3-3-3-3-3-3-3--5-5-5-5-5-5-5-5--------|
[0:54-1:01]-------------------------------|-------------------------------|-------------------------------|-4-4-4--4-4-4--4-4-4--7-7-7-7--|-2-2-2--2-2-2--2-2-2-----------|-2-2-2--2-2-2--2-2-2--5-5-5-5--|
Repeat Intro: [1:01-1:26] Repeat chorus: [1:26-2:05] Bridge: [2:05-2:30]
-------------------------------------|-------------------------------------|-------------------------------------|-2~--4~--9~--7~--2~--4~--5~--7~------|-2~--4~--9~--7~--2~--4~--5~--7~------|-0~--2~--7~--5~--0~--2~--3~--5~------|
Chorus:[2:30-3:02]-------------------------------------------------|-------------------------------------------------|-------------------------------------------------|---------------------------7-7-7-7--7-7-7-7------|---------------------------5-5-5-5--7-7-7-7------|---------------------------5-5-5-5--5-5-5-5------|
-------------------------------------------------|-------------------------------------------------|-------------------------------------------------|-4-4-4--4-4-4--4-4-4--4-4--7-7-7-7--4-4-4-4------|-2-2-2--2-2-2--2-2-2--2-2--7-7-7-7--4-4-4-4------|-2-2-2--2-2-2--2-2-2--2-2--5-5-5-5--2-2-2-2------|
-------------------------------------------------|-------------------------------------------------|-------------------------------------------------|-4-4-4--4-4-4--4-4-4--4-4--7-7-7-7--7-7-7-7------|-2-2-2--2-2-2--2-2-2--2-2--5-5-5-5--7-7-7-7------|-2-2-2--2-2-2--2-2-2--2-2--5-5-5-5--5-5-5-5------|
-----------------------------------------|-----------------------------------------|-----------------------------------------|-5-5-5-5-5-5-5-5--7-7-7-7-7-7-7-7--------|-5-5-5-5-5-5-5-5--7-7-7-7-7-7-7-7--------|-3-3-3-3-3-3-3-3--5-5-5-5-5-5-5-5--------|
-----------------------------------------|-----------------------------------------|-----------------------------------------|-5-5-5-5-5-5-5-5--7-7-7-7-7-7-7-7--------|-5-5-5-5-5-5-5-5--7-7-7-7-7-7-7-7--------|-3-3-3-3-3-3-3-3--5-5-5-5-5-5-5-5--------|
-------------------------------|-------------------------------|-------------------------------|-4-4-4--4-4-4--4-4-4--7-7-7-7--|[x2]-2-2-2--2-2-2--2-2-2-----------|-2-2-2--2-2-2--2-2-2--5-5-5-5--|
Tap to rate this tab
 
# A B C D E F G H I J K L M N O P Q R S T U V W X Y Z