Neurosis – Locust Star tab

Neurosis - Locust Star (complete) -- tabbed by Steve Pordon

Notes: -1077945896s a rest, dots under measures represent 1/8 notes

Tune down 1 whole step:

(intro--4 measures)d|--------------------0-----------------------------|A|--------------------------------------------------|F|*-------0-----------------------------0-----------|C|*-2-----------2-----------------2-----------2-----|G|--------------------------------------------------|D|--------------------------------------------------| . . . . . . . .
|--------------------------------------------------||--------------------------------------------------||--------------------------------------------------||(2)-----------------------------------------------||--------------------------------------------------||--------------------------------------------------| . . . . . . . .
|---------------------0----------------------------||--------------------------------------------------||--------------------------------------------------||--2-----4-----2-----------------2-----4-----2-----||--------------------------------------------------||--------------------------------------------------| . . . . . . . .
|--------------------------------------------------||--------------------------------------------------||-------------------------------------------------*||(2)----------------------------------------------*||--------------------------------------------------||--------------------------------------------------| . . . . . . . .
Play that 4 times, then this with heavy distortion:
(Part A)|--------------------------------------------------||--------------------------------------------------||*-9-----9-----9-----9-----9-----12----12----12----| (Gtr. 1)|*-9-----9-----9-----9-----9-----12----12----12----||--7-----7-----7-----7-----7-----10----10----10----||--7-----7-----7-----7-----7-----10----10----10----|
| . . . . . . . . || || ||--------------------------------------------------||--------------------------------------------------||*-------------------------------------------------| (Gtr. 2)|*-2-----2-----2-----2-----2-----2-----2-----2-----||--2-----2-----2-----2-----2-----2-----2-----2-----||--0-----0-----0-----0-----0-----0-----0-----0-----| . . . . . . . .
|--------------------------------------------------||--------------------------------------------------||--12----12----12----12----12----12----12---/14----| (Gtr. 1)|--12----12----12----12----12----12----12---/14----||--10----10----10----10----10----10----10---/12----||--10----10----10----10----10----10----10---/12----|
| . . . . . . . . || || ||--------------------------------------------------||--------------------------------------------------||--------------------------------------------------| (Gtr. 2)|--2-----2-----2-----2-----2-----2-----2-----2-----||--2-----2-----2-----2-----2-----2-----2-----2-----||--0-----0-----0-----0-----0-----0-----0-----0-----| . . . . . . . .
|--------------------------------------------------||--------------------------------------------------||--11----11----11----11----11----12----12----12----| (Gtr. 1)|--11----11----11----11----11----11----11----11----||--9-----9-----9-----9-----9-----9-----9-----9-----||--9-----9-----9-----9-----9-----9-----9-----9-----|
| . . . . . . . . || || ||--------------------------------------------------||--------------------------------------------------||--------------------------------------------------| (Gtr. 2)|--2-----2-----2-----2-----2-----2-----2-----2-----||--2-----2-----2-----2-----2-----2-----2-----2-----||--0-----0-----0-----0-----0-----0-----0-----0-----| . . . . . . . .
|--------------------------------------------------||--------------------------------------------------||--12----11----11----11----11----11----11----11---*| (Gtr. 1)|--11----11----11----11----11----11----11----11---*||--9-----9-----9-----9-----9-----9-----9-----9-----||--9-----9-----9-----9-----9-----9-----9-----9-----|
| . . . . . . . . || || ||--------------------------------------------------||--------------------------------------------------||-------------------------------------------------*| (Gtr. 2)|--2-----2-----2-----2-----2-----2-----2-----2----*||--2-----2-----2-----2-----2-----2-----2-----2-----||--0-----0-----0-----0-----0-----0-----0-----0-----| . . . . . . . .
Play 4 times, then:
(Part B)|--------------------------------------------------||--------------------------------------------------||*-12---------------------/15--------------------\*| (Gtr. 1)|*------------------------------------------------*||--------------------------------------------------||--------------------------------------------------|
| . . . . . . . . || || ||--------------------------------------------------||--------------------------------------------------||*-9-----9-----9-----9-----9-----9-----9-----9-----| (Gtr. 2)|*-9-----9-----9-----9-----9-----9-----9-----9-----||--7-----7-----7-----7-----7-----7-----7-----7-----||--------------------------------------------------| . . . . . . . .
Play 8 times, then:
(Part C)|--------------------------------------------------||--------------------------------------------------||*-------------------------------------------------| (Gtr. 1 & 2)|*-5'----------------' ----------------||--------------------------------------------------||--3'----------------' ----------------| . . . . . . . . (1/2 bend) (1/2 bend)
|--------------------------------------------------||--------------------------------------------------||--------------------------------------------------||--5'----------------' ----------------||--------------------------------------------------||--3'----------------' ----------------| . . . . . . . . (1/2 bend) (1/2 bend)
|--------------------------------------------------||--------------------------------------------------||--------------------------------------------------||--4-----------------------------2-----4-----2-----||--4-----------------------------2-----4-----2-----||--2-----------------------------0-----2-----0-----| . . . . . . . .
|--------------------------------------------------||--------------------------------------------------||-------------------------------------------------*||--4----------------------------------------------*||--4-----------------------------------------------||--2-----------------------------------------------| . . . . . . . .
Play twice, then once more along with this (the numbers in parentheses are bends):
(Part D--4 measures)|--------------------------------------------------||--------------------------------------------------||--------------------------------------------------||--5----(6)---(5)---(6)----5----(6)---(5)---(6)----||--------------------------------------------------||--------------------------------------------------| . . . . . . . .
|--------------------------------------------------||--------------------------------------------------||--------------------------------------------------||--5----(6)---(5)---(6)----5----(6)---(5)---(6)----||--------------------------------------------------||--------------------------------------------------| . . . . . . . .
|--------------------------------------------------||--------------------------------------------------||--------------------------------------------------||--4-----------------------------2-----4-----2-----||--------------------------------------------------||--------------------------------------------------| . . . . . . . .
|--------------------------------------------------||--------------------------------------------------||--------------------------------------------------||--4-----------------------------------------------||--------------------------------------------------||--------------------------------------------------| . . . . . . . .
Now play part D again but with this instead of part C:
|--------------------------------------------------||--------------------------------------------------||--------------------------------------------------||--------------------------------------------------||--------------------------------------------------||--3----------------------(5)-------------------(3)| . . . . . . . .
|--------------------------------------------------||--------------------------------------------------||--------------------------------------------------||--------------------------------------------------||--------------------------------------------------||--3----------------------(5)-------------------(3)| . . . . . . . .
|--------------------------------------------------||--------------------------------------------------||--------------------------------------------------||--4-----------------------------2-----4-----2-----||--4-----------------------------2-----4-----2-----||--2-----------------------------0-----2-----0-----| . . . . . . . .
|--------------------------------------------------||--------------------------------------------------||-------------------------------------------------*||--4----------------------------------------------*||--4-----------------------------------------------||--2-----------------------------------------------| . . . . . . . .
Go back and play everything except the intro again, then freestyle the F (6th string 3rd fret and 4th string 5th fret) notes for 8 measures (slow bends), then comes the FHP--fucking heavy part:
(FHP)|--------------------------------------------------||--------------------------------------------------||*-------------------------------------------------| (Gtr. 1 & 2)|*-2-----2-----2-----2-----2-----5-----5-----5-----| (And maybe 3)|--2-----2-----2-----2-----2-----5-----5-----5-----||--0-----0-----0-----0-----0-----3-----3-----3-----| . . . . . . . .
|--------------------------------------------------||--------------------------------------------------||--------------------------------------------------||-(5)----5-----5-----5-----5-----5-----5-----5-----||-(5)----5-----5-----5-----5-----5-----5-----5-----||-(3)----3-----3-----3-----3-----3-----3-----3-----| . . . . . . . .
|--------------------------------------------------||--------------------------------------------------||--------------------------------------------------||--2-----2-----2-----2-----2-----5-----5-----5-----||--2-----2-----2-----2-----2-----5-----5-----5-----||--0-----0-----0-----0-----0-----3-----3-----3-----| . . . . . . . .
|--------------------------------------------------||--------------------------------------------------||-------------------------------------------------*||--5-----4-----4-----4-----4-----4-----4-----4----*||--5-----4-----4-----4-----4-----4-----4-----4-----||--3-----2-----2-----2-----2-----2-----2-----2-----| . . . . . . . .
Play FHP 8 times. Lyrics: rise shining blank scars burn way down. it parts ways of the serpent view. cast stones where to stop calling you. they all lower me to the ground. stick him. they all lower me to the soil. stick him. star. reign down on you. you'll starve. bright star in the dripping sun writhe on. saints steal from your actions. step in right on its function. stick him. star. reign down on you. you all lower me christs shine blinds your world. your belief is scars. the will to power. ascension manifest. that which is above. is as that which is below. that which is below is as that which is above. thy will be done. thy kingdom come. on earth as in heaven so mote it be. (lyrics from http://www.pcisys.net/~bannoy/neurosis/silver.htm#5)
Please rate this tab:
x1.0