Never The Strangers – Moving Closer tab ver. 3

Moving Closer – Never the Strangers (fingerstyle guitar)
Arranged by: Ralph Jay Triumfo
YT Channel: youtube.com/ralphjay14
Original Video Cover: youtube.com/watch?v=wQf5DhFUeLM
Facebook Page: facebook.com/pages/Ralph-Jay-Triumfo/184492391578

Intro: C----|--------3-2--2h3--0-----3-2-----------||----0-------------------------3---0---||--0--0------0---0---0-------0---0-----||--------------------------------------||----------3~--------------3~----------||--------------------------------------|
|--------3-2--2h3--0-----3-2-----------||----0-------------------------3-------||--0--0------0---0---0-------0---0-----||----------------------------------2---||----------3~--------------3~----------||--------------------------------------|
Verse 1: G-C-Em-CWhen you smile...|--------------------------------------||--0---3------1------0--------1--------||----0---0----0—-0h2-----0----0--------||----------2--2--------2---2--2--------||--2-----3~---3----------3~---3--------||--3~----------------0~----------------|
|--------------------------------------||--0-0-3------1------0--------1--------||--------0----0—-0h2-----0----0--------||----------2--2--------2---2--2--------||--2-----3~---3----------3~---3--------||--3~----------------0~----------------|
|--------------------------------------||--0---3------1------0--------1--------||----0---0----0—-0h2-----0----0--------||----------2--2--------2---2--2--------||--2-----3~---3----------3~---3--------||--3~----------------0~----------------|
|--------------------------------------||--0---3------1------0--------1--------||----0---0----0—-0h2-----0----0--------||----------2--2--------2---2--2--------||--2-----3~---3----------3~---3--------||--3~----------------0~----------------|
Refrain: D--C--D—C—.....Come away with me...|--2--0----2-----0-----3-3--2--0---------0--3-3-||--3-----3-3-0h3-------3-3--3----3-0-0-3--3-3-3-||--2-2-2---2-------0-0-0-0--2---------------0-0-||--0~------0-----------2----0~---0----------2---||----------------3~----3-----------------3~-3---||-----------------------------------------------|
Chorus: 1st: C-D-Bm-C 2nd: C-D-Em-Bm 3th: C-D-Bm-C 4th: C-D-Em-D-C-DInch by inch...|----------------0---------------------||--0-3---3---3-3-----3--3-------1------||------0-------2--------2--2--0-0------||------2---0------------0-------2------||--3---3-----------2----2---3---3------||--------------------------------------|
|-----------0--------0-----------------||--0-3-0-3----3-0----0-----------------||------0------2------0--2-4------------||------2---0-------2-2-----------------||--3---3-------------2--2--------------||----------------0---0-----------------|
|----------------0---------------------||--0-3---3---3-3-----3--3-------1------||------0-------2--------2--2--0-0------||------2---0------------0-------2------||--3---3-----------2----2---3---3------||--------------------------------------|
(harmonics)|--------0-------------0-----2----------------------------||--0-3-0-----3-0-0-----0-----3----------(12)(12)----------||------0-------2-------0---2-2--(12)(12)-----------2-0-0--||------2---0---------2-2--0--0-------------------0--------||--3---3---------------2----------------------------------||------------------0---0---------8~-----------------------|
Outro: G-C-Em-C|--3-3-2--2h3-0-0-------------------||--3---3--------0--3-0------1-------||--0---0--------0------2-0--0-------||--0---2--------2-----------2-------||--2---3--------2--------3--3-------||--3------------0-------------------|
Verse 2: G-C-Em-C (the bass notes must be palm muted)Who’d have thought...|---------------------------------------||--0---3------1------0---------1--------||--------0----0—-0h2------0----0--------||-------------2--------2----2--2--------||--2-----333333-----------333333--------||--33333-------------00000--------------|
|---------------------------------------||--0---3------1------0---------1--------||--------0----0—-0h2------0----0--------||-------------2--------2----2--2--------||--2-----333333-----------333333--------||--33333-------------00000--------------|
Refrain: D--C--D--C--I’ll hold my breath...|--2--0----2-----0-----3-3--2--0---------0--3-3-||--3-----3-3-0h3-------3-3--3----3-0-0-3--3-3-3-||--2-2-2---2-------0-0-0-0--2---------------0-0-||--0~------0-----------2----0~---0----------2---||----------------3~----3-----------------3~-3---||-----------------------------------------------|
Chorus: 1st: C-D-Bm-C 2nd: C-D-Em-Bm 3th: C-D-Bm-C 4th: C-D-Em-D-C-DInch by inch...|----------------0---------------------||--0-3---3---3-3-----3--3-------1------||------0-------2--------2--2--0-0------||------2---0------------0-------2------||--3---3-----------2----2---3---3------||--------------------------------------|
|-----------0--------0-----------------||--0-3-0-3----3-0----0-----------------||------0------2------0--2-4------------||------2---0-------2-2-----------------||--3---3-------------2--2--------------||----------------0---0-----------------|
|----------------0---------------------||--0-3---3---3-3-----3--3-------1------||------0-------2--------2--2--0-0------||------2---0------------0-------2------||--3---3-----------2----2---3---3------||--------------------------------------|
|--------0-------------0-----2---------||--0-3-0-----3-0-0-----0-----3---------||------0-------2-------0---2-2---------||------2---0---------2-2--0--0---------||--3---3---------------2---------------||------------------0---0---------------|
Inch by inch...|----------------0---------------------||--0-3---3---3-3-----3--3-------1------||------0-------2--------2--2--0-0------||------2---0------------0-------2------||--3---3-----------2----2---3---3------||--------------------------------------|
|-----------0---3----0--2--------------||--0-3-0-3----3------0-----3-----------||------0------2------0-----2-----------||------2---0-------2-2--0--0-----------||--3---3-------------2-----------------||----------------0---0-----------------|
|----------------0---------------------||--0-3---3---3-3-----3--3-------1------||------0-------2--------2--2--0-0------||------2---0------------0-------2------||--3---3-----------2----2---3---3------||--------------------------------------|
|--------3--2-2-2-----0-----2----------||--0-3-0------3-------0-----3----------||------0------2-------0---2-2----------||------2---0--0-----2-2--0--0----------||--3---3--------------2----------------||-----------------0---0----------------|
...moving closer...|------0-------------------------------||-----------3-3--0-0-3-----3-----------||------0------2----2-------0-----------||----2-2--0---0----0-----2-2-----------||--3---3---------2-2---3---3-----------||--------------------------------------|
|------0------------2---3-2-0----------||-----------3-0-0-----------3-3--------||------0------2-------------2----------||----2-2--0---0-------2--0--0----------||--3---3--------------2----------------||-----------------0---0----------------|
|------0------------------0------------||-----------3-3--0--------1------------||------0------2-----2--0--0------------||----2-2--0---0-----0-----2------------||--3---3---------------3--3------------||----------------0---------------------|
(harmonics)I’m moving closer to you.|----------------------------||----------(12)(12)----------||--(12)(12)-----------2-0-0--||-------------------0--------||----------------------------||---8~-----------------------|
Outro: G-C-Em-C|--3-3-2-2h3-0---3-2---3~--------------||--3---3-------0---3-3-3~--------------||--0---0-------0---0---0~--------------||--0---2-------2---2---0~--------------||--2---3-------2---3---2~--------------||--3-----------0-------3~--------------|
For more fingerstyle guitar tabs, subscribe to my youtube channel and like my page on facebook. Thank you. :)
Please rate this tab:
x1.0