Nevermore - I Voyager tab

Artist: NEVERMORE
Song: I, Voyager
Album: Enemies of Reality

Loomis (1)
Smyth  (2)

Tuning: Eb|--------------------------|Bb|--------------------------|F#|--------------------------|C#|--------------------------|G#|--------------------------|Eb|--------------------------|Bb|--------------------------|
(loomis & Smyth)|-----------||-----------||-----------||-----------||5-5-4-6-5--||5-5-4-6-5--|(Smyth lets it ring)|3-3-2-4-3--| x x x
(1) after intro riff|---------------------------------------------------------------------------|---------------------------------------------------------------------------|---------------------------------------------------------------------------|---------------------------------------------------------------------------|-5----5----5----4----4----4----4----4----4----2----2----4-5-4--------------|---------------------------------------------------------------------------|--2222-2222-2222-2222-2222-2222-2222-2222-2222-2222-2222------------------- xxxx xxxx xxxx xxxx xxxx xxxx xxxx xxxx xxxx xxxx xxxx
|---------------------------------------------------------------------------|---------------------------------------------------------------------------|---------------------------------------------------------------------------|---------------------------------------------------------------------------|-5----5----5----4----4----4----4----4--------------------------------------|---------------------------------------------------------------------------|--2222-2222-2222-2222-2222-2222-2222-2222----1-0-2-1-0--------------------| xxxx xxxx xxxx xxxx xxxx xxxx xxxx xxxx |Both Guitars|
(1) and (2) |2 times||---------------------------------------------------------------------------|---------------------------------------------------------------------------|---------------------------------------------------------------------------|---------------------------------------------------------------------------|-5----5----5----4----4----4----4----4----4----2----2----4-5-4--------------|---------------------------------------------------------------------------|--2222-2222-2222-2222-2222-2222-2222-2222-2222-2222-2222------------------- xxxx xxxx xxxx xxxx xxxx xxxx xxxx xxxx xxxx xxxx xxxx
(1) and (2) 2 times|--------------------------------------------------------------------------||--------------------------------------------------------------------------||--------------------------------------------------------------------------||--------------------------------------------------------------------------||--------------------------------------------------------------------------||--------------------------------------------------------------------------||-1-0-1-0-2-1-0-1-0-1-0-2-1-0-1-0-1-0-2-1-0-1-0-1-0-2-1-0-1-0-10-2-1-0-1-0-|
Vocals come in and both guitars play: |4 Times||--------------------------------------------------------------------------||--------------------------------------------------------------------------||--------------------------------------------------------------------------||--------------------------------------------------------------------------||--------------------------------------------------------------------------||--------------------------------------------------------------------------||-1-0-1-0-2-1-0-1-0-1-0-2-1-0-1-0-1-0-2-1-0-1-0-1-0-2-1-0-1-0-1-0-2-1-0-1-0| X X X X X X X X X X X X X X X X X X X X X X X X X X X X X X X X
|BRIDGE 1|Play twice|--------------------------------------------------------------------------||--------------------------------------------------------------------------||--------------------------------------------------------------------------||--------------------------------------------------------------------------||--------------------------------------------------------------------------||--------------------------------------------------------------------------||1-0-1-0--1-0-1-0--1-0-1-0--1-0-1-0--1-0-1-0--1-0-1-0--1-0-1-0--1-0-1-0-1-0| x x x x x x x x x x x x x x x x x x x x x x x x x x x x x x x x x x
|BRIDGE 2||----------------------------------------||----------------------------------------||----------------------------------------||----------------------------------------||-------8-------8-------8-------8-------8||-------7-------7-------7-------7-------7||1-0-1-0-1-0-1-0-1-0-1-0-1-0-1-0-1-0-1-0-|
x x x x x x x x x x x x x x x x x x x x|----------------------------------------||----------------------------------------||----------------------------------------||----------------------------------------||-------7-------7-------7-------7-------7||-------6-------6-------6-------6-------6||1-0-1-0-1-0-1-0-1-0-1-0-1-0-1-0-1-0-1-0-|
x x x x x x x x x x x x x x x x x x x x|----------------------------------------||----------------------------------------||----------------------------------------||----------------------------------------||-------8-------8-------8-------8-------8||-------7-------7-------7-------7-------7||1-0-1-0-1-0-1-0-1-0-1-0-1-0-1-0-1-0-1-0-|
x x x x x x x x x x x x x x x x x x x x|----------------------------------------||----------------------------------------||----------------------------------------||----------------------------------------||-------7-------7-------7-------7-------7||-------6-------6-------6-------6-------6||1-0-1-0-1-0-1-0-1-0-1-0-1-0-1-0-1-0-1-0-| x x x x x x x x x x x x x x x x x x x x
|Chorus| Play 4 times
|---------------------------||-----------0-0-0-----------||---------------------------||---------------------------||-5--5-3-5-6-----6-6-8-6-5-5||-5--5-3-5-6-----6-6-8-6-5-5||-3--3-1-3-4-----4-4-6-4-3-3|
play after first chorus |2 Times||--------------------------------------------------------------------------||--------------------------------------------------------------------------||--------------------------------------------------------------------------||--------------------------------------------------------------------------||--------------------------------------------------------------------------||--------------------------------------------------------------------------||-1-0-1-0-2-1-0-1-0-1-0-2-1-0-1-0-1-0-2-1-0-1-0-1-0-2-1-0-1-0-1-0-2-1-2-1-0|
|2Times||--------------------------------------------------------------------------||--------------------------------------------------------------------------||--------------------------------------------------------------------------||--------------------------------------------------------------------------||--------------------------------------------------------------------------||--------------------------------------------------------------------------||-1-0-1-0-2-1-0-1-0-1-0-2-1-0-1-0-1-0-2-1-0-1-0-1-0-2-1-0-1-0-1-0-2-1-0-1-0| X X X X X X X X X X X X X X X X X X X X X X X X X X X X X X X X
|----------------------------------------||----------------------------------------||----------------------------------------||----------------------------------------||-------8-------8-------8-------8-------8||-------7-------7-------7-------7-------7||1-0-1-0-1-0-1-0-1-0-1-0-1-0-1-0-1-0-1-0-|
x x x x x x x x x x x x x x x x x x x x|----------------------------------------||----------------------------------------||----------------------------------------||----------------------------------------||-------7-------7-------7-------7-------7||-------6-------6-------6-------6-------6||1-0-1-0-1-0-1-0-1-0-1-0-1-0-1-0-1-0-1-0-|
x x x x x x x x x x x x x x x x x x x x|----------------------------------------||----------------------------------------||----------------------------------------||----------------------------------------||-------8-------8-------8-------8-------8||-------7-------7-------7-------7-------7||1-0-1-0-1-0-1-0-1-0-1-0-1-0-1-0-1-0-1-0-|
x x x x x x x x x x x x x x x x x x x x|----------------------------------------||----------------------------------------||----------------------------------------||----------------------------------------||-------7-------7-------7-------7-------7||-------6-------6-------6-------6-------6||1-0-1-0-1-0-1-0-1-0-1-0-1-0-1-0-1-0-1-0-| x x x x x x x x x x x x x x x x x x x x
|Chorus| Play 4 times
|---------------------------||-----------0-0-0-----------||---------------------------||---------------------------||-5--5-3-5-6-----6-6-8-6-5-5||-5--5-3-5-6-----6-6-8-6-5-5||-3--3-1-3-4-----4-4-6-4-3-3|
Bridge to solo play 4 times|-----------------------------------------------||-----------------------------------------------||-----------------------------------------------||-----------------------------------------------||8-8-------8-8-------8-8------------------------||7-7-------7-7-------7-7------------------------||---0-0-0-0---0-0-0-0---0-0-0-0-7p5p0-3h5h6b-3p0| x x x x x x x x x x x xSOLO|HAVENT GOTTEN TO IT YET SORRY!!|
riff after solo, play two times|-----------------------------------------------||-----------------------------------------------||-----------------------------------------------||-----------------------------------------------||8-8-------8-8-------8-8------------------------||7-7-------7-7-------7-7------------------------||---0000000---0000000---0000000-7p5p0-3h5h6b-3p0|
Riff after solo Play 4 times|--------------------------------------------------------------------------||--------------------------------------------------------------------------||--------------------------------------------------------------------------||--------------------------------------------------------------------------||--------------------------------------------------------------------------||--------------------------------------------------------------------------||-2-1-0-1-0-2-1-0-1-0-1-0-1-2-1-0-1-0-2-1-0-1-0-1-0-2-1-0-1-0-3-2-1-0-1-0-1|
|4 Times||--------------------------------------------------------------------------||--------------------------------------------------------------------------||--------------------------------------------------------------------------||--------------------------------------------------------------------------||--------------------------------------------------------------------------||--------------------------------------------------------------------------||-1-0-1-0-2-1-0-1-0-1-0-2-1-0-1-0-1-0-2-1-0-1-0-1-0-2-1-0-1-0-1-0-2-1-0-1-0| X X X X X X X X X X X X X X X X X X X X X X X X X X X X X X X X
|Chorus Play 6 times||---------------------------||-----------0-0-0-----------||---------------------------||---------------------------||-5--5-3-5-6-----6-6-8-6-5-5||-5--5-3-5-6-----6-6-8-6-5-5||-3--3-1-3-4-----4-4-6-4-3-3|
Play 2 times|---------------------------------------------------------------------------|---------------------------------------------------------------------------|---------------------------------------------------------------------------|---------------------------------------------------------------------------|-5----5----5----4----4----4----4----4----4----2----2----4-5-4--------------|---------------------------------------------------------------------------|--2222-2222-2222-2222-2222-2222-2222-2222-2222-2222-2222------------------- xxxx xxxx xxxx xxxx xxxx xxxx xxxx xxxx xxxx xxxx xxxx
|-------------*|-------------*|-------------*|-------------*|5-5-4-6-5-2--*|5-5-4-6-5-2--*|3-3-2-4-3-0--* x x x
Tap to rate this tab
 
# A B C D E F G H I J K L M N O P Q R S T U V W X Y Z