Nevermore - Evolution 169 tab version 2

Nevermore
"Evolution 169" from A Dead heart in a Dead world


Tuning: Bb (Bb-Eb-Ab-Db-Gb-Bb-Eb)

Intro|-----------------------------------||-----------------------------------||-----------------------------------||-----------------------------------||--7---4---4/5--3--3/5---10--9---8--||-----------------------------------||--5---2---2/3--1--1/3---8---7---6--|
|--------------------------------------||--------------------------------------||---0-0--0-----------------0---0-------||----0--0-0---------------0-0-0-0------|x2|--7---4---4/5--3--3/5---10--9---8-----||--------------------------------------||--5---2---2/3--1--1/3---8---7---6-----|
Verse 1|--------------------------------------------------||--------------------------------------------------||--------------------------------------------------||--------------------------------------------------||--4--4--4--4--4--5--4--4-4-4--4--4--4--4--5--4----||--2--2--2--2--2--3--2--2-2-2--2--2--2--2--3--2----||--------------------------------------------------| . . . . . . . . .
|---------------------------------------------||---------------------------------------------||---------------------------------------------||--5--5--5--5--4--5--------------------------:|x4|--3--3--3--3--2--3--5--5--5--5--5--7--5--2---||--------------------3--3--3--3--3--5--3--0---||---------------------------------------------| . . . . . .
Chorus|------------------------------------------------------------||------------------------------------------------------------||------------------------------------------------------------||------------9~--2~------------------------------------------|x2|--5~-5--2~--7~--2~------------------------------------------||--3~-3--2~--5~--0~------------------------------------------||--------0---------------------------------------------------|
Then Play Intro Verse 1 Chorus
Stick(2nd time with added harmony)|-----------------------------------------||-----------------------------------------||-----------------------------------------||-----------------------------------------||--------------------------4~------3~-p0--||--4---4--4--4--5--4--0h2h3---0h2h3-------||--2---2--2--2--3--2----------------------| . . . .
|------------------------------------------------------||------------------------------------------------------||------------------------------------------------------||-----------------------------------------------------:|x2|--------------------------4~------3~------1~----------||--4---4--4--4--5--4--0h2h3---0h2h3---0h2h3--------4~--||--2---2--2--2--3--2--------------------------0h2h3----| . . . .
Solo|-12-------11-------10-------9------------------||-15b17~---14b16~---13b15~---12b14~-------------||----------------------------------------12~----||-----------------------------------------------||-----------------------------------------------||-----------------------------------------------||-----------------------------------------------|
Fast|----------------15-12--------------------------||-------------14--------14---------14-13-12-----||-----12--15----------------15--12----------15--||-14--------------------------------------------||-----------------------------------------------||-----------------------------------------------||-----------------------------------------------|
|----------------------------------12-15/21\18--||-12----------------------------14--------------||----12----------12-15----12-15-----------------||-------14-11-14-------14-----------------------||-----------------------------------------------||-----------------------------------------------||-----------------------------------------------|
|-15--------------------------------------------||----17-------17-16-15----15--------------------||-------18-15----------18----15----------15-18--||-------------------------------17-14-17--------||-----------------------------------------------||-----------------------------------------------||-----------------------------------------------|
|-12-------11-------10-------9------------------||-15b17~---14b16~---13b15~---12b14~-------------||----------------------------------------12~----||-----------------------------------------------||-----------------------------------------------||-----------------------------------------------||-----------------------------------------------|
|-----------------------------------------------||-----------------------------------------------||-----------------------------------------------||----------------------------14-----------------||-14----------------14-15-17----17-15-14-15-17--||----17-15-14-15-17-----------------------------||-----------------------------------------------|
|-----------------------------------------------||-----------------------------------------------||-------------------16----------------16-17-19--||-14-16-17-16-17-19----19-17-16-17-19-----------||-----------------------------------------------||-----------------------------------------------||-----------------------------------------------|
|----------------------------17-19-20-----------||-17----------------17-19-20----------19-20-22--||----19-17-16-17-19-----------------------------||-----------------------------------------------||-----------------------------------------------||-----------------------------------------------||-----------------------------------------------|
|--19-20-22-------------------------------------||------------17~--------------------------------||-----------------------------------------------||-----------------------------------------------||-----------------------------------------------||-----------------------------------------------||-----------------------------------------------|
After solo|--------------------------------------------------------||--------------------------------------------------------||--------------------------------------------------------||-------2--------------1---------------------------------||-------2--------------1--------------5---------------4--||--0--0-----0--0--0--0----0--0--0--0--5---0--0--0--0--4--||--------------------------------------------------------|
|--------------------||--------------------||--------------------||--------1--1--3--1-:|x4|--------1--1--3--1--||--0--0--------------||--------------------|
|-----------------------------------------||-----------------------------------------||-----------------------------------------||-----------------------------------------||--------------------------4~------3~-p0--||--4---4--4--4--5-----0h2h3---0h2h3-------||--2---2--2--2--3-------------------------|
Chorus|------------------------------------------------------------||------------------------------------------------------------||------------------------------------------------------------||------------9~--2~------------------------------------------|x2|--5~-5--2~--7~--2~------------------------------------------||--3~-3--2~--5~--0~------------------------------------------||--------0---------------------------------------------------|
|-----------------------------------||-----------------------------------||-----------------------------------||-----------------------------------||--7---4---4/5--3--3/5---10--9---8--||-----------------------------------||--5---2---2/3--1--1/3---8---7---6--|
(play this as many times as its played out)|--------------------------------------||--------------------------------------||---0-0--0-----------------0---0-------||----0--0-0---------------0-0-0-0------||--7---4---4/5--3--3/5---10--9---8-----||--------------------------------------||--5---2---2/3--1--1/3---8---7---6-----|
Tap to rate this tab
 
# A B C D E F G H I J K L M N O P Q R S T U V W X Y Z