Dont You Forget About Me tab with lyrics by New Found Glory - Easy chords and tabs for guitar

New Found Glory – Dont You Forget About Me tab

By-Francis
SHC-Lucena City,Philippines
Cp #- 09287150674 
E-add- f_sario@yahoo.com  
http://profiles.friendster.com/37158911

Tuning- GtrI ( e b g d A E }

Intro-


|------------------------------------------------------||------------------------------------------------------||------------------------------------------------------||--5--7~-7777777777--5-10~-3--5~-555-------------------|2x|--3--5~-5555555555--3-8~--1--3~-333-------------------||------------------------------------------------------|
Verse-
1.|------------------------------------------------------||------------------------------------------------------||-7~~~~~~~~~~~~~~~~~~~~~~~~~~~~~~~~~-------------------||-7~~~~~~~~~~~~~~~~~~~~~~~~~~~~~~~~~-------------------||-5~~~~~~~~~~~~~~~~~~~~~~~~~~~~~~~~~-------------------||------------------------------------------------------|
2.|------------------------------------------------------||------------------------------------------------------||-7~~~~~~~~~~~~~~~~~~~~~~~~~~~~~~~~~-------------------||-7~~~~~~~~~~~~~~~~~~~~~~~~~~~~~~~~~-------------------||-5~~~~~~~~~~~~~~~~~~~~~~~~~~~~~~~~~-------------------||------------------------------------------------------|
3.|------------------------------------------------------||------------------------------------------------------||-777777-77-555555-55------------777777-77-------------||-777777-77-555555-55-555555-55--777777-77-------------||-555555-55-333333-33-555555-55--555555-55-------------||---------------------333333-33------------------------| ****** ****** ****** ******
4.|------------------------------------------------------||------------------------------------------------------||-777777-77-555555-55-------------77777777-------------||-777777-77-555555-55-5555555555--77777777-------------||-555555-55-333333-33-5555555555--55555555-------------||---------------------3333333333-----------------------| ****** ******
Chorus-
|------------------------------------------------------||------------------------------------------------------||-7--7~---5--5~-----------7777-777---------------------|2x|-7--7~---5--5~-5--5~-----7777-777---------------------||-5--5~---3--3~-5--5~-----5555-555---------------------||---------------3--3~----------------------------------| ****
Verse-1.|---------------------------------------------------------------------------------||---------------------------------------------------------------------------------||---------------------------------------------------------------------------------||-3333333333333333333---------------------5555555555555555555---------------------||-1111111111111111111-3333333333333333333-3333333333333333333-5555555555555555555-||---------------------1111111111111111111---------------------3333333333333333333-| ******************* ******************* ******************* ******************
2.|-------------------------------------------------------------------------------||-------------------------------------------------------------------------------||-33-333333-33-3333333-----------------------55-555555-55-5555555---------------||-11-111111-11-1111111-33-333333-33-3333333--33-333333-33-3333333-5555555555555-||----------------------11-111111-11-1111111-----------------------3333333333333-| ** ****** ** ******* ** ****** ** ******* ** ****** ** ******* *********
Repeat Intro-Verse-Chorus3x-
Bridge-1.|--------------------------------------------||--------------------------------------------||---7~---/--5~--------/--7~------------------|2x|---7~---/--5~-/--5~--/--7~------------------||---5~---/--3~-/--5~--/--5~------------------||--------------/--3~-------------------------|
2.|------------------------------------------------------||------------------------------------------------------||-7~~~~~~~~~~~~~~~~~~~~~~~~~~~~~~~~~-------------------||-7~~~~~~~~~~~~~~~~~~~~~~~~~~~~~~~~~-------------------||-5~~~~~~~~~~~~~~~~~~~~~~~~~~~~~~~~~-------------------||------------------------------------------------------|
3.Or will you...|------------------------------------------------||------------------------------------------------||-7777777--5555555-----------7777777-------------||-7777777--5555555--5555555--7777777-------------|2x|-5555555--3333333--5555555--5555555-------------||-------------------3333333----------------------| ****** ******* ******* *******
Outro-
la..lalala..lalala..|------------------------------------------------||------------------------------------------------||-7777777--5555555-----------7777777-------------||-7777777--5555555--5555555--7777777-------------|4x|-5555555--3333333--5555555--5555555-------------||-------------------3333333----------------------|
GtrII(trm)enters|------------------------------------------------||-13-12----12--13-12----12-13-12----12-13-12-----||-------12-----------12----------12--------------||------------------------------------------------||------------------------------------------------||------------------------------------------------|end-
|-----------------------------------------------||-----------------------------------------------||-5-7~~~~~~~~~~~~~~~~~~~~~~~~-------------------||-5-7~~~~~~~~~~~~~~~~~~~~~~~~-------------------||-3-5~~~~~~~~~~~~~~~~~~~~~~~~-------------------||-----------------------------------------------|
Please rate this tab:
x1.0