Here In Your Presence tab with lyrics by New Life Worship - Easy chords and tabs for guitar

New Life Worship – Here In Your Presence tab

You can Capo 5 for the second part if you're lazy to barre the 10th fret on High E and B 
(Most of the parts are beyond the 5th fret anyway)

--------------------------------------|--------------------------------------|-7-9s11s9s7-7-----7-9s11s9p7-9p7------|--------------7s9---------------------|--------------------------------------|--------------------------------------|
---------------------------|---------------------------|-6-7-9-----7-9b11r9p7h9----|-------7h9-----------------|---------------------------|---------------------------|
-----------------------------------------|-----------------------------10----------|-7-9s11s9p7-9p7-9p7-9p7-9s11----11s9p7-9-|-----------------------------------------|-----------------------------------------|-----------------------------------------|
--------------------------|---------------10-10------|-7h9p7-9s11-11-------11---|--------------------------|--------------------------|--------------------------|
Here's where the capo comes in handy, holding down the E string, 5th fret for you.
-10p5-(x3)-12p10-(x3)-14p10-(x3)-12-12p10p5-5-10p5-|---------------------------------------------------|---------------------------------------------------|---------------------------------------------------|---------------------------------------------------|---------------------------------------------------|
-10p5-(x3)-12p5-(x3)-14p10p5-(x3)-12h14-12p10-10-|-------------------------------------------------|-------------------------------------------------|-------------------------------------------------|-------------------------------------------------|-------------------------------------------------|
-12p10p5-14p10p5-(x3)-15p10p5-14p10p5-12p10p5-|----------------------------------------------|----------------------------------------------|----------------------------------------------|----------------------------------------------|----------------------------------------------|
-14p10p5-12p10p5-5-5----------------------|---------------------10-10s14-14s15-15-17-|------------------------------------------|------------------------------------------|------------------------------------------|------------------------------------------|
Tab originally from http://guitarpraise.blogspot.sg/2008/03/here-in-your-presence.html
Please rate this tab:
x1.0